  0
SECTION
  2
HEADER
  9
$ACADVER
  1
AC1015
  9
$ACADMAINTVER
 70
     6
  9
$DWGCODEPAGE
  3
ANSI_1254
  9
$INSBASE
 10
0.0
 20
0.0
 30
0.0
  9
$EXTMIN
 10
0.0
 20
0.0
 30
0.0
  9
$EXTMAX
 10
279.4
 20
215.9
 30
0.0
  9
$LIMMIN
 10
0.0
 20
0.0
  9
$LIMMAX
 10
279.4
 20
215.9
  9
$ORTHOMODE
 70
     0
  9
$REGENMODE
 70
     1
  9
$FILLMODE
 70
     1
  9
$QTEXTMODE
 70
     0
  9
$MIRRTEXT
 70
     1
  9
$LTSCALE
 40
1.0
  9
$ATTMODE
 70
     1
  9
$TEXTSIZE
 40
3.5
  9
$TRACEWID
 40
1.0
  9
$TEXTSTYLE
  7
Standard
  9
$CLAYER
  8
0
  9
$CELTYPE
  6
ByLayer
  9
$CECOLOR
 62
   256
  9
$CELTSCALE
 40
1.0
  9
$DISPSILH
 70
     0
  9
$DIMSCALE
 40
1.0
  9
$DIMASZ
 40
3.5
  9
$DIMEXO
 40
1.0
  9
$DIMDLI
 40
3.75
  9
$DIMRND
 40
0.0
  9
$DIMDLE
 40
0.0
  9
$DIMEXE
 40
1.0
  9
$DIMTP
 40
0.0
  9
$DIMTM
 40
0.0
  9
$DIMTXT
 40
3.5
  9
$DIMCEN
 40
2.5
  9
$DIMTSZ
 40
0.0
  9
$DIMTOL
 70
     0
  9
$DIMLIM
 70
     0
  9
$DIMTIH
 70
     1
  9
$DIMTOH
 70
     1
  9
$DIMSE1
 70
     0
  9
$DIMSE2
 70
     0
  9
$DIMTAD
 70
     1
  9
$DIMZIN
 70
     0
  9
$DIMBLK
  1

  9
$DIMASO
 70
     1
  9
$DIMSHO
 70
     1
  9
$DIMPOST
  1

  9
$DIMAPOST
  1

  9
$DIMALT
 70
     0
  9
$DIMALTD
 70
     3
  9
$DIMALTF
 40
0.0393700787
  9
$DIMLFAC
 40
1.0
  9
$DIMTOFL
 70
     1
  9
$DIMTVP
 40
0.0
  9
$DIMTIX
 70
     0
  9
$DIMSOXD
 70
     0
  9
$DIMSAH
 70
     0
  9
$DIMBLK1
  1

  9
$DIMBLK2
  1

  9
$DIMSTYLE
  2
ISO-25
  9
$DIMCLRD
 70
     0
  9
$DIMCLRE
 70
     0
  9
$DIMCLRT
 70
     0
  9
$DIMTFAC
 40
1.0
  9
$DIMGAP
 40
1.524
  9
$DIMJUST
 70
     0
  9
$DIMSD1
 70
     0
  9
$DIMSD2
 70
     0
  9
$DIMTOLJ
 70
     0
  9
$DIMTZIN
 70
     0
  9
$DIMALTZ
 70
     0
  9
$DIMALTTZ
 70
     0
  9
$DIMUPT
 70
     0
  9
$DIMDEC
 70
     2
  9
$DIMTDEC
 70
     2
  9
$DIMALTU
 70
     2
  9
$DIMALTTD
 70
     3
  9
$DIMTXSTY
  7
Standard
  9
$DIMAUNIT
 70
     0
  9
$DIMADEC
 70
     2
  9
$DIMALTRND
 40
0.0
  9
$DIMAZIN
 70
     0
  9
$DIMDSEP
 70
    44
  9
$DIMATFIT
 70
     3
  9
$DIMFRAC
 70
     0
  9
$DIMLDRBLK
  1

  9
$DIMLUNIT
 70
     2
  9
$DIMLWD
 70
    -2
  9
$DIMLWE
 70
    -2
  9
$DIMTMOVE
 70
     0
  9
$LUNITS
 70
     2
  9
$LUPREC
 70
     2
  9
$SKETCHINC
 40
1.0
  9
$FILLETRAD
 40
10.0
  9
$AUNITS
 70
     0
  9
$AUPREC
 70
     2
  9
$MENU
  1
.
  9
$ELEVATION
 40
0.0
  9
$PELEVATION
 40
0.0
  9
$THICKNESS
 40
0.0
  9
$LIMCHECK
 70
     0
  9
$CHAMFERA
 40
0.0
  9
$CHAMFERB
 40
0.0
  9
$CHAMFERC
 40
0.0
  9
$CHAMFERD
 40
0.0
  9
$SKPOLY
 70
     0
  9
$TDCREATE
 40
2459954.364267002
  9
$TDUCREATE
 40
2459954.239267002
  9
$TDUPDATE
 40
2459954.364267732
  9
$TDUUPDATE
 40
2459954.239267732
  9
$TDINDWG
 40
0.0000000116
  9
$TDUSRTIMER
 40
0.0000000116
  9
$USRTIMER
 70
     1
  9
$ANGBASE
 50
0.0
  9
$ANGDIR
 70
     0
  9
$PDMODE
 70
     0
  9
$PDSIZE
 40
-1.0
  9
$PLINEWID
 40
0.0
  9
$SPLFRAME
 70
     0
  9
$SPLINETYPE
 70
     6
  9
$SPLINESEGS
 70
     8
  9
$HANDSEED
  5
10E
  9
$SURFTAB1
 70
     6
  9
$SURFTAB2
 70
     6
  9
$SURFTYPE
 70
     6
  9
$SURFU
 70
     6
  9
$SURFV
 70
     6
  9
$UCSBASE
  2

  9
$UCSNAME
  2

  9
$UCSORG
 10
0.0
 20
0.0
 30
0.0
  9
$UCSXDIR
 10
1.0
 20
0.0
 30
0.0
  9
$UCSYDIR
 10
0.0
 20
1.0
 30
0.0
  9
$UCSORTHOREF
  2

  9
$UCSORTHOVIEW
 70
     0
  9
$UCSORGTOP
 10
0.0
 20
0.0
 30
0.0
  9
$UCSORGBOTTOM
 10
0.0
 20
0.0
 30
0.0
  9
$UCSORGLEFT
 10
0.0
 20
0.0
 30
0.0
  9
$UCSORGRIGHT
 10
0.0
 20
0.0
 30
0.0
  9
$UCSORGFRONT
 10
0.0
 20
0.0
 30
0.0
  9
$UCSORGBACK
 10
0.0
 20
0.0
 30
0.0
  9
$PUCSBASE
  2

  9
$PUCSNAME
  2

  9
$PUCSORG
 10
0.0
 20
0.0
 30
0.0
  9
$PUCSXDIR
 10
1.0
 20
0.0
 30
0.0
  9
$PUCSYDIR
 10
0.0
 20
1.0
 30
0.0
  9
$PUCSORTHOREF
  2

  9
$PUCSORTHOVIEW
 70
     0
  9
$PUCSORGTOP
 10
0.0
 20
0.0
 30
0.0
  9
$PUCSORGBOTTOM
 10
0.0
 20
0.0
 30
0.0
  9
$PUCSORGLEFT
 10
0.0
 20
0.0
 30
0.0
  9
$PUCSORGRIGHT
 10
0.0
 20
0.0
 30
0.0
  9
$PUCSORGFRONT
 10
0.0
 20
0.0
 30
0.0
  9
$PUCSORGBACK
 10
0.0
 20
0.0
 30
0.0
  9
$USERI1
 70
     0
  9
$USERI2
 70
     0
  9
$USERI3
 70
     0
  9
$USERI4
 70
     0
  9
$USERI5
 70
     0
  9
$USERR1
 40
0.0
  9
$USERR2
 40
0.0
  9
$USERR3
 40
0.0
  9
$USERR4
 40
0.0
  9
$USERR5
 40
0.0
  9
$WORLDVIEW
 70
     1
  9
$SHADEDGE
 70
     3
  9
$SHADEDIF
 70
    70
  9
$TILEMODE
 70
     1
  9
$MAXACTVP
 70
    64
  9
$PINSBASE
 10
0.0
 20
0.0
 30
0.0
  9
$PLIMCHECK
 70
     0
  9
$PEXTMIN
 10
1.0000000000E+20
 20
1.0000000000E+20
 30
1.0000000000E+20
  9
$PEXTMAX
 10
-1.0000000000E+20
 20
-1.0000000000E+20
 30
-1.0000000000E+20
  9
$PLIMMIN
 10
0.0
 20
0.0
  9
$PLIMMAX
 10
420.0
 20
297.0
  9
$UNITMODE
 70
     0
  9
$VISRETAIN
 70
     1
  9
$PLINEGEN
 70
     0
  9
$PSLTSCALE
 70
     1
  9
$TREEDEPTH
 70
  3020
  9
$CMLSTYLE
  2
Standard
  9
$CMLJUST
 70
     0
  9
$CMLSCALE
 40
20.0
  9
$PROXYGRAPHICS
 70
     1
  9
$MEASUREMENT
 70
     1
  9
$CELWEIGHT
370
    -1
  9
$ENDCAPS
280
     0
  9
$JOINSTYLE
280
     0
  9
$LWDISPLAY
290
     1
  9
$INSUNITS
 70
     4
  9
$HYPERLINKBASE
  1

  9
$STYLESHEET
  1

  9
$XEDIT
290
     1
  9
$CEPSNTYPE
380
     0
  9
$PSTYLEMODE
290
     1
  9
$FINGERPRINTGUID
  2
{313ddd36-5ddc-4da0-bd5b-be1d5c6379b9}
  9
$VERSIONGUID
  2
{FAEB1C32-E019-11D5-929B-00C0DF256EC4}
  9
$EXTNAMES
290
     1
  9
$PSVPSCALE
 40
0.0
  9
$OLESTARTUP
290
     0
  0
ENDSEC
  0
SECTION
  2
CLASSES
  0
CLASS
  1
ACDBDICTIONARYWDFLT
  2
AcDbDictionaryWithDefault
  3
ObjectDBX Classes
 90
        0
280
     0
281
     0
  0
CLASS
  1
VISUALSTYLE
  2
AcDbVisualStyle
  3
ObjectDBX Classes
 90
     4095
280
     0
281
     0
  0
CLASS
  1
MATERIAL
  2
AcDbMaterial
  3
ObjectDBX Classes
 90
     1153
280
     0
281
     0
  0
CLASS
  1
SCALE
  2
AcDbScale
  3
ObjectDBX Classes
 90
     1153
280
     0
281
     0
  0
CLASS
  1
TABLESTYLE
  2
AcDbTableStyle
  3
ObjectDBX Classes
 90
     4095
280
     0
281
     0
  0
CLASS
  1
MLEADERSTYLE
  2
AcDbMLeaderStyle
  3
ACDB_MLEADERSTYLE_CLASS
 90
     4095
280
     0
281
     0
  0
CLASS
  1
SUN
  2
AcDbSun
  3
SCENEOE
 90
     1153
280
     0
281
     0
  0
CLASS
  1
ACDBPLACEHOLDER
  2
AcDbPlaceHolder
  3
ObjectDBX Classes
 90
        0
280
     0
281
     0
  0
CLASS
  1
LAYOUT
  2
AcDbLayout
  3
ObjectDBX Classes
 90
        0
280
     0
281
     0
  0
ENDSEC
  0
SECTION
  2
TABLES
  0
TABLE
  2
VPORT
  5
8
330
0
100
AcDbSymbolTable
 70
     1
  0
VPORT
  5
29
330
8
100
AcDbSymbolTableRecord
100
AcDbViewportTableRecord
  2
*Active
 70
     0
 10
0.0
 20
0.0
 11
1.0
 21
1.0
 12
139.7
 22
107.95
 13
0.0
 23
0.0
 14
10.0
 24
10.0
 15
10.0
 25
10.0
 16
0.0
 26
0.0
 36
1.0
 17
0.0
 27
0.0
 37
0.0
 40
215.9
 41
1.2941176471
 42
50.0
 43
0.0
 44
0.0
 50
0.0
 51
0.0
 71
     0
 72
  2000
 73
     1
 74
     3
 75
     0
 76
     0
 77
     0
 78
     0
281
     0
 65
     1
110
0.0
120
0.0
130
0.0
111
1.0
121
0.0
131
0.0
112
0.0
122
1.0
132
0.0
 79
     0
146
0.0
  0
ENDTAB
  0
TABLE
  2
LTYPE
  5
5
330
0
100
AcDbSymbolTable
 70
     6
  0
LTYPE
  5
14
330
5
100
AcDbSymbolTableRecord
100
AcDbLinetypeTableRecord
  2
ByBlock
 70
     0
  3

 72
    65
 73
     0
 40
0.0
  0
LTYPE
  5
15
330
5
100
AcDbSymbolTableRecord
100
AcDbLinetypeTableRecord
  2
ByLayer
 70
     0
  3

 72
    65
 73
     0
 40
0.0
  0
LTYPE
  5
16
330
5
100
AcDbSymbolTableRecord
100
AcDbLinetypeTableRecord
  2
Continuous
 70
     0
  3
Solid line
 72
    65
 73
     0
 40
0.0
  0
LTYPE
  5
6E
330
5
100
AcDbSymbolTableRecord
100
AcDbLinetypeTableRecord
  2
HIDDEN
 70
     0
  3
Hidden __ __ __ __ __ __ __ __ __ __ __ __ __ __
 72
    65
 73
     2
 40
1.905
 49
1.27
 74
     0
 49
-0.635
 74
     0
  0
LTYPE
  5
6F
330
5
100
AcDbSymbolTableRecord
100
AcDbLinetypeTableRecord
  2
PHANTOM
 70
     0
  3
Phantom ______  __  __  ______  __  __  ______
 72
    65
 73
     6
 40
12.7
 49
6.35
 74
     0
 49
-1.27
 74
     0
 49
1.27
 74
     0
 49
-1.27
 74
     0
 49
1.27
 74
     0
 49
-1.27
 74
     0
  0
LTYPE
  5
70
330
5
100
AcDbSymbolTableRecord
100
AcDbLinetypeTableRecord
  2
CENTER
 70
     0
  3
Center ____ _ ____ _ ____ _ ____ _ ____ _ ____
 72
    65
 73
     4
 40
10.16
 49
6.35
 74
     0
 49
-1.27
 74
     0
 49
1.27
 74
     0
 49
-1.27
 74
     0
  0
LTYPE
  5
71
330
5
100
AcDbSymbolTableRecord
100
AcDbLinetypeTableRecord
  2
CENTERX2
 70
     0
  3
Center (2x) ________  __  ________  __  _____
 72
    65
 73
     4
 40
20.32
 49
12.7
 74
     0
 49
-2.54
 74
     0
 49
2.54
 74
     0
 49
-2.54
 74
     0
  0
LTYPE
  5
72
330
5
100
AcDbSymbolTableRecord
100
AcDbLinetypeTableRecord
  2
DOT2
 70
     0
  3
Dot (.5x) ........................................
 72
    65
 73
     2
 40
0.635
 49
0.0
 74
     0
 49
-0.635
 74
     0
  0
ENDTAB
  0
TABLE
  2
LAYER
  5
2
330
0
100
AcDbSymbolTable
 70
    17
  0
LAYER
  5
10
330
2
100
AcDbSymbolTableRecord
100
AcDbLayerTableRecord
  2
0
 70
     0
 62
     7
  6
Continuous
370
    -3
390
F
  0
LAYER
  5
73
330
2
100
AcDbSymbolTableRecord
100
AcDbLayerTableRecord
  2
FORMAT
 70
     0
 62
     7
  6
Continuous
370
    -3
390
F
  0
LAYER
  5
74
330
2
100
AcDbSymbolTableRecord
100
AcDbLayerTableRecord
  2
YARDIMCI_GEOMETRI
 70
     0
 62
    -6
  6
Continuous
290
     0
370
    -3
390
F
  0
LAYER
  5
75
330
2
100
AcDbSymbolTableRecord
100
AcDbLayerTableRecord
  2
SAYFA_CERCEVESI
 70
     0
 62
     7
  6
Continuous
370
    25
390
F
  0
LAYER
  5
76
330
2
100
AcDbSymbolTableRecord
100
AcDbLayerTableRecord
  2
ANTET
 70
     0
 62
     7
  6
Continuous
370
    -3
390
F
  0
LAYER
  5
77
330
2
100
AcDbSymbolTableRecord
100
AcDbLayerTableRecord
  2
OLCU
 70
     0
 62
   150
  6
Continuous
370
    -3
390
F
  0
LAYER
  5
78
330
2
100
AcDbSymbolTableRecord
100
AcDbLayerTableRecord
  2
METIN
 70
     0
 62
    96
  6
Continuous
370
    -3
390
F
  0
LAYER
  5
79
330
2
100
AcDbSymbolTableRecord
100
AcDbLayerTableRecord
  2
BALON
 70
     0
 62
     5
  6
Continuous
370
    -3
390
F
  0
LAYER
  5
7A
330
2
100
AcDbSymbolTableRecord
100
AcDbLayerTableRecord
  2
VURGU
 70
     0
 62
     7
  6
Continuous
370
    -3
390
F
  0
LAYER
  5
7B
330
2
100
AcDbSymbolTableRecord
100
AcDbLayerTableRecord
  2
SILIK
 70
     0
 62
     7
  6
Continuous
370
    -3
390
F
  0
LAYER
  5
7C
330
2
100
AcDbSymbolTableRecord
100
AcDbLayerTableRecord
  2
MODEL
 70
     0
 62
     7
  6
Continuous
370
    -3
390
F
  0
LAYER
  5
7D
330
2
100
AcDbSymbolTableRecord
100
AcDbLayerTableRecord
  2
DETAYLANDıRMA
 70
     0
 62
   190
  6
Continuous
370
    -3
390
F
  0
LAYER
  5
7E
330
2
100
AcDbSymbolTableRecord
100
AcDbLayerTableRecord
  2
TOLERANS
 70
     0
 62
   230
  6
Continuous
370
    -3
390
F
  0
LAYER
  5
7F
330
2
100
AcDbSymbolTableRecord
100
AcDbLayerTableRecord
  2
MERKEZ_CIZGILERI
 70
     0
 62
    30
  6
Continuous
370
    -3
390
F
  0
LAYER
  5
80
330
2
100
AcDbSymbolTableRecord
100
AcDbLayerTableRecord
  2
KESIT-DETAY_CIZGILERI
 70
     0
 62
     7
  6
Continuous
370
    -3
390
F
  0
LAYER
  5
81
330
2
100
AcDbSymbolTableRecord
100
AcDbLayerTableRecord
  2
\U+041E\U+0421\U+0415\U+0412\U+042B\U+0415
 70
     0
 62
     7
  6
Continuous
370
    -3
390
F
  0
LAYER
  5
82
330
2
100
AcDbSymbolTableRecord
100
AcDbLayerTableRecord
  2
\U+0412\U+041E\U+0414\U+042F\U+041D\U+042B\U+0415_\U+0417\U+041D\U+0410\U+041A\U+0418
 70
     0
 62
    11
  6
Continuous
370
    -3
390
F
  0
ENDTAB
  0
TABLE
  2
STYLE
  5
3
330
0
100
AcDbSymbolTable
 70
     1
  0
STYLE
  5
11
330
3
100
AcDbSymbolTableRecord
100
AcDbTextStyleTableRecord
  2
Standard
 70
     0
 40
0.0
 41
1.0
 50
0.0
 71
     0
 42
3.5
  3
txt
  4

  0
ENDTAB
  0
TABLE
  2
VIEW
  5
6
330
0
100
AcDbSymbolTable
 70
     0
  0
ENDTAB
  0
TABLE
  2
UCS
  5
7
330
0
100
AcDbSymbolTable
 70
     0
  0
ENDTAB
  0
TABLE
  2
APPID
  5
9
330
0
100
AcDbSymbolTable
 70
     1
  0
APPID
  5
12
330
9
100
AcDbSymbolTableRecord
100
AcDbRegAppTableRecord
  2
ACAD
 70
     0
  0
ENDTAB
  0
TABLE
  2
DIMSTYLE
  5
A
330
0
100
AcDbSymbolTable
 70
     1
100
AcDbDimStyleTable
  0
DIMSTYLE
105
27
330
A
100
AcDbSymbolTableRecord
100
AcDbDimStyleTableRecord
  2
ISO-25
 70
     0
 41
2.5
 42
0.625
 43
3.75
 44
1.25
 73
     0
 74
     0
 77
     1
 78
     8
140
2.5
141
2.5
143
0.0393700787
147
0.625
171
     3
172
     1
178
     0
271
     2
272
     2
274
     3
278
    44
283
     0
284
     8
340
11
  0
ENDTAB
  0
TABLE
  2
BLOCK_RECORD
  5
1
330
0
100
AcDbSymbolTable
 70
     4
  0
BLOCK_RECORD
  5
1F
330
1
100
AcDbSymbolTableRecord
100
AcDbBlockTableRecord
  2
*Model_Space
340
22
  0
BLOCK_RECORD
  5
1B
330
1
100
AcDbSymbolTableRecord
100
AcDbBlockTableRecord
  2
*Paper_Space
340
1E
  0
BLOCK_RECORD
  5
23
330
1
100
AcDbSymbolTableRecord
100
AcDbBlockTableRecord
  2
*Paper_Space0
340
26
  0
BLOCK_RECORD
  5
8C
330
1
100
AcDbSymbolTableRecord
100
AcDbBlockTableRecord
  2
SW_CENTERMARKSYMBOL_0
340
0
102
{BLKREFS
331
97
102
}
  0
BLOCK_RECORD
  5
DE
330
1
100
AcDbSymbolTableRecord
100
AcDbBlockTableRecord
  2
SW_CENTERMARKSYMBOL_1
340
0
102
{BLKREFS
331
E9
102
}
  0
BLOCK_RECORD
  5
EA
330
1
100
AcDbSymbolTableRecord
100
AcDbBlockTableRecord
  2
SW_CENTERMARKSYMBOL_2
340
0
102
{BLKREFS
331
F5
102
}
  0
ENDTAB
  0
ENDSEC
  0
SECTION
  2
BLOCKS
  0
BLOCK
  5
20
330
1F
100
AcDbEntity
  8
0
100
AcDbBlockBegin
  2
*Model_Space
 70
     0
 10
0.0
 20
0.0
 30
0.0
  3
*Model_Space
  1

  0
ENDBLK
  5
21
330
1F
100
AcDbEntity
  8
0
100
AcDbBlockEnd
  0
BLOCK
  5
1C
330
1B
100
AcDbEntity
 67
     1
  8
0
100
AcDbBlockBegin
  2
*Paper_Space
 70
     0
 10
0.0
 20
0.0
 30
0.0
  3
*Paper_Space
  1

  0
ENDBLK
  5
1D
330
1B
100
AcDbEntity
 67
     1
  8
0
100
AcDbBlockEnd
  0
BLOCK
  5
24
330
23
100
AcDbEntity
  8
0
100
AcDbBlockBegin
  2
*Paper_Space0
 70
     0
 10
0.0
 20
0.0
 30
0.0
  3
*Paper_Space0
  1

  0
ENDBLK
  5
25
330
23
100
AcDbEntity
  8
0
100
AcDbBlockEnd
  0
BLOCK
  5
8D
330
8C
100
AcDbEntity
  8
0
100
AcDbBlockBegin
  2
SW_CENTERMARKSYMBOL_0
 70
     0
 10
0.0
 20
0.0
 30
0.0
  3
SW_CENTERMARKSYMBOL_0
  1

  0
LINE
  5
8F
330
8C
100
AcDbEntity
  8
FORMAT
 62
     0
100
AcDbLine
 10
0.0
 20
0.0
 30
0.0
 11
0.0
 21
2.5
 31
0.0
  0
LINE
  5
90
330
8C
100
AcDbEntity
  8
FORMAT
 62
     0
100
AcDbLine
 10
0.0
 20
0.0
 30
0.0
 11
-2.5
 21
0.0
 31
0.0
  0
LINE
  5
91
330
8C
100
AcDbEntity
  8
FORMAT
 62
     0
100
AcDbLine
 10
0.0
 20
0.0
 30
0.0
 11
0.0
 21
-2.5
 31
0.0
  0
LINE
  5
92
330
8C
100
AcDbEntity
  8
FORMAT
 62
     0
100
AcDbLine
 10
0.0
 20
0.0
 30
0.0
 11
2.5
 21
0.0
 31
0.0
  0
LINE
  5
93
330
8C
100
AcDbEntity
  8
FORMAT
 62
     0
100
AcDbLine
 10
0.0
 20
5.0
 30
0.0
 11
0.0
 21
15.16
 31
0.0
  0
LINE
  5
94
330
8C
100
AcDbEntity
  8
FORMAT
 62
     0
100
AcDbLine
 10
-5.0
 20
0.0
 30
0.0
 11
-15.16
 21
0.0
 31
0.0
  0
LINE
  5
95
330
8C
100
AcDbEntity
  8
FORMAT
 62
     0
100
AcDbLine
 10
0.0
 20
-5.0
 30
0.0
 11
0.0
 21
-15.16
 31
0.0
  0
LINE
  5
96
330
8C
100
AcDbEntity
  8
FORMAT
 62
     0
100
AcDbLine
 10
5.0
 20
0.0
 30
0.0
 11
15.16
 21
0.0
 31
0.0
  0
ENDBLK
  5
8E
330
8C
100
AcDbEntity
  8
0
100
AcDbBlockEnd
  0
BLOCK
  5
DF
330
DE
100
AcDbEntity
  8
0
100
AcDbBlockBegin
  2
SW_CENTERMARKSYMBOL_1
 70
     0
 10
0.0
 20
0.0
 30
0.0
  3
SW_CENTERMARKSYMBOL_1
  1

  0
LINE
  5
E1
330
DE
100
AcDbEntity
  8
FORMAT
 62
     0
100
AcDbLine
 10
0.0
 20
0.0
 30
0.0
 11
0.0
 21
2.5
 31
0.0
  0
LINE
  5
E2
330
DE
100
AcDbEntity
  8
FORMAT
 62
     0
100
AcDbLine
 10
0.0
 20
0.0
 30
0.0
 11
-2.5
 21
0.0
 31
0.0
  0
LINE
  5
E3
330
DE
100
AcDbEntity
  8
FORMAT
 62
     0
100
AcDbLine
 10
0.0
 20
0.0
 30
0.0
 11
0.0
 21
-2.5
 31
0.0
  0
LINE
  5
E4
330
DE
100
AcDbEntity
  8
FORMAT
 62
     0
100
AcDbLine
 10
0.0
 20
0.0
 30
0.0
 11
2.5
 21
0.0
 31
0.0
  0
LINE
  5
E5
330
DE
100
AcDbEntity
  8
FORMAT
 62
     0
100
AcDbLine
 10
0.0
 20
5.0
 30
0.0
 11
0.0
 21
9.5
 31
0.0
  0
LINE
  5
E6
330
DE
100
AcDbEntity
  8
FORMAT
 62
     0
100
AcDbLine
 10
-5.0
 20
0.0
 30
0.0
 11
-9.5
 21
0.0
 31
0.0
  0
LINE
  5
E7
330
DE
100
AcDbEntity
  8
FORMAT
 62
     0
100
AcDbLine
 10
0.0
 20
-5.0
 30
0.0
 11
0.0
 21
-9.5
 31
0.0
  0
LINE
  5
E8
330
DE
100
AcDbEntity
  8
FORMAT
 62
     0
100
AcDbLine
 10
5.0
 20
0.0
 30
0.0
 11
9.5
 21
0.0
 31
0.0
  0
ENDBLK
  5
E0
330
DE
100
AcDbEntity
  8
0
100
AcDbBlockEnd
  0
BLOCK
  5
EB
330
EA
100
AcDbEntity
  8
0
100
AcDbBlockBegin
  2
SW_CENTERMARKSYMBOL_2
 70
     0
 10
0.0
 20
0.0
 30
0.0
  3
SW_CENTERMARKSYMBOL_2
  1

  0
LINE
  5
ED
330
EA
100
AcDbEntity
  8
FORMAT
 62
     0
100
AcDbLine
 10
0.0
 20
0.0
 30
0.0
 11
0.0
 21
2.5
 31
0.0
  0
LINE
  5
EE
330
EA
100
AcDbEntity
  8
FORMAT
 62
     0
100
AcDbLine
 10
0.0
 20
0.0
 30
0.0
 11
-2.5
 21
0.0
 31
0.0
  0
LINE
  5
EF
330
EA
100
AcDbEntity
  8
FORMAT
 62
     0
100
AcDbLine
 10
0.0
 20
0.0
 30
0.0
 11
0.0
 21
-2.5
 31
0.0
  0
LINE
  5
F0
330
EA
100
AcDbEntity
  8
FORMAT
 62
     0
100
AcDbLine
 10
0.0
 20
0.0
 30
0.0
 11
2.5
 21
0.0
 31
0.0
  0
LINE
  5
F1
330
EA
100
AcDbEntity
  8
FORMAT
 62
     0
100
AcDbLine
 10
0.0
 20
5.0
 30
0.0
 11
0.0
 21
9.5
 31
0.0
  0
LINE
  5
F2
330
EA
100
AcDbEntity
  8
FORMAT
 62
     0
100
AcDbLine
 10
-5.0
 20
0.0
 30
0.0
 11
-9.5
 21
0.0
 31
0.0
  0
LINE
  5
F3
330
EA
100
AcDbEntity
  8
FORMAT
 62
     0
100
AcDbLine
 10
0.0
 20
-5.0
 30
0.0
 11
0.0
 21
-9.5
 31
0.0
  0
LINE
  5
F4
330
EA
100
AcDbEntity
  8
FORMAT
 62
     0
100
AcDbLine
 10
5.0
 20
0.0
 30
0.0
 11
9.5
 21
0.0
 31
0.0
  0
ENDBLK
  5
EC
330
EA
100
AcDbEntity
  8
0
100
AcDbBlockEnd
  0
ENDSEC
  0
SECTION
  2
ENTITIES
  0
LINE
  5
83
330
1F
100
AcDbEntity
  8
0
  6
Continuous
 62
     7
370
    25
100
AcDbLine
 10
145.2832231786
 20
112.3068288081
 30
0.0
 11
145.2832231786
 21
131.3949519231
 31
0.0
  0
LINE
  5
84
330
1F
100
AcDbEntity
  8
0
  6
Continuous
 62
     7
370
    25
100
AcDbLine
 10
131.2832231786
 20
131.3949519231
 30
0.0
 11
131.2832231786
 21
112.3051567821
 31
0.0
  0
CIRCLE
  5
85
330
1F
100
AcDbEntity
  8
0
  6
Continuous
 62
     7
370
    25
100
AcDbCircle
 10
138.2832231786
 20
95.8949519231
 30
0.0
 40
17.15000000000001
  0
ARC
  5
86
330
1F
100
AcDbEntity
  8
0
  6
Continuous
 62
     7
370
    25
100
AcDbCircle
 10
138.2832231786
 20
95.8949519231
 30
0.0
 40
18.15000000000001
100
AcDbArc
 50
112.6856472024
 51
180.0
  0
ARC
  5
87
330
1F
100
AcDbEntity
  8
0
  6
Continuous
 62
     7
370
    25
100
AcDbCircle
 10
138.2832231786
 20
95.8949519231
 30
0.0
 40
18.15000000000001
100
AcDbArc
 50
180.0
 51
67.3143527976
  0
SPLINE
  5
88
330
1F
100
AcDbEntity
  8
0
  6
Continuous
 62
     7
370
    25
100
AcDbSpline
210
0.0
220
0.0
230
1.0
 70
     8
 71
     3
 72
    22
 73
    18
 74
     0
 42
0.00000001
 43
0.00000001
 40
0.0
 40
0.0
 40
0.0
 40
0.0
 40
0.0706640017113767
 40
0.1413200206672455
 40
0.2121011782028143
 40
0.2828635239690926
 40
0.3511696321632889
 40
0.4194768003180628
 40
0.4857531498895419
 40
0.5520442898076731
 40
0.6203304860546732
 40
0.6886235165130378
 40
0.7600717290829672
 40
0.8314999822726703
 40
0.9018769324519942
 40
0.9722352800914281
 40
1.0
 40
1.0
 40
1.0
 40
1.0
 10
143.432467251478
 20
112.7337672296662
 30
0.0
 10
143.1523590411466
 20
112.799767905467
 30
0.0
 10
142.5921742636868
 20
112.9317618011187
 30
0.0
 10
141.590615709011
 20
113.1184900548801
 30
0.0
 10
140.4980193894572
 20
113.2659677450001
 30
0.0
 10
139.347514780939
 20
113.3597281389292
 30
0.0
 10
138.1780418890854
 20
113.3855483420438
 30
0.0
 10
137.0367351328238
 20
113.348592749006
 30
0.0
 10
135.9441910978358
 20
113.2509410188422
 30
0.0
 10
134.9151212341846
 20
113.1078220229768
 30
0.0
 10
133.9686875696314
 20
112.9292597754355
 30
0.0
 10
133.1133530658839
 20
112.733026619297
 30
0.0
 10
132.3906885100566
 20
112.5434602139856
 30
0.0
 10
131.8215486448374
 20
112.384925378786
 30
0.0
 10
131.4547838947487
 20
112.2930053672711
 30
0.0
 10
131.2812914514691
 20
112.2638015186425
 30
0.0
 10
131.2998060044523
 20
112.2960358234418
 30
0.0
 10
131.305044847781
 20
112.3051567821172
 30
0.0
  0
SPLINE
  5
89
330
1F
100
AcDbEntity
  8
0
  6
Continuous
 62
     7
370
    25
100
AcDbSpline
210
0.0
220
0.0
230
1.0
 70
     8
 71
     3
 72
    12
 73
     8
 74
     0
 42
0.00000001
 43
0.00000001
 40
0.0
 40
0.0
 40
0.0
 40
0.0
 40
0.105696734077398
 40
0.3178841120347334
 40
0.530117924998976
 40
0.7650234503146319
 40
1.0
 40
1.0
 40
1.0
 40
1.0
 10
145.2574038866694
 20
112.3068288080611
 30
0.0
 10
145.2631982396115
 20
112.2962036081316
 30
0.0
 10
145.2806248210087
 20
112.2642482002917
 30
0.0
 10
145.1074551094755
 20
112.2943727935339
 30
0.0
 10
144.7563442781072
 20
112.3814528532037
 30
0.0
 10
144.2090568458247
 20
112.5358406141762
 30
0.0
 10
143.6913565336831
 20
112.6677850432108
 30
0.0
 10
143.432467251478
 20
112.7337672296662
 30
0.0
  0
CIRCLE
  5
8A
330
1F
100
AcDbEntity
  8
0
  6
Continuous
 62
     7
370
    25
100
AcDbCircle
 10
138.2832231786
 20
95.8949519231
 30
0.0
 40
12.66000000000001
  0
LINE
  5
8B
330
1F
100
AcDbEntity
  8
0
  6
Continuous
 62
     7
370
    25
100
AcDbLine
 10
145.2832231786
 20
131.3949519231
 30
0.0
 11
131.2832231786
 21
131.3949519231
 31
0.0
  0
INSERT
  5
97
330
1F
100
AcDbEntity
  8
FORMAT
 62
     7
100
AcDbBlockReference
  2
SW_CENTERMARKSYMBOL_0
 10
138.2832231786
 20
95.8949519231
 30
0.0
  0
ARC
  5
98
330
1F
100
AcDbEntity
  8
0
  6
Continuous
 62
     7
370
    25
100
AcDbCircle
 10
211.4916336276
 20
-264.5800480769
 30
0.0
 40
378.6249999999992
100
AcDbArc
 50
93.404698512
 51
94.1651305595
  0
ARC
  5
99
330
1F
100
AcDbEntity
  8
0
  6
Continuous
 62
     7
370
    25
100
AcDbCircle
 10
211.4916336276
 20
-264.5800480769
 30
0.0
 40
378.6249999999992
100
AcDbArc
 50
90.0
 51
91.2875571451
  0
ARC
  5
9A
330
1F
100
AcDbEntity
  8
0
  6
Continuous
 62
     7
370
    25
100
AcDbCircle
 10
211.4916336276
 20
456.3699519231
 30
0.0
 40
378.6249999999992
100
AcDbArc
 50
265.8348694405
 51
270.0
  0
LINE
  5
9B
330
1F
100
AcDbEntity
  8
0
  6
Continuous
 62
     7
370
    25
100
AcDbLine
 10
211.4916336276
 20
77.7449519231
 30
0.0
 11
236.4916336276
 21
77.7449519231
 31
0.0
  0
LINE
  5
9C
330
1F
100
AcDbEntity
  8
0
  6
Continuous
 62
     7
370
    25
100
AcDbLine
 10
236.4916336276
 20
114.0449519231
 30
0.0
 11
211.4916336276
 21
114.0449519231
 31
0.0
  0
ARC
  5
9D
330
1F
100
AcDbEntity
  8
0
  6
Continuous
 62
     7
370
    25
100
AcDbCircle
 10
236.4916336276
 20
-264.5800480769
 30
0.0
 40
378.6249999999992
100
AcDbArc
 50
88.712960436
 51
90.0
  0
ARC
  5
9E
330
1F
100
AcDbEntity
  8
0
  6
Continuous
 62
     7
370
    25
100
AcDbCircle
 10
236.4916336276
 20
-264.5800480769
 30
0.0
 40
378.6249999999992
100
AcDbArc
 50
85.8348694405
 51
86.5941271327
  0
ARC
  5
9F
330
1F
100
AcDbEntity
  8
0
  6
Continuous
 62
     7
370
    25
100
AcDbCircle
 10
236.4916336276
 20
456.3699519231
 30
0.0
 40
378.6249999999992
100
AcDbArc
 50
270.0
 51
274.1651305595
  0
LINE
  5
A0
330
1F
100
AcDbEntity
  8
0
  6
Continuous
 62
     7
370
    25
100
AcDbLine
 10
202.9916336276
 20
113.9463897997
 30
0.0
 11
202.9916336276
 21
131.3949519231
 31
0.0
  0
LINE
  5
A1
330
1F
100
AcDbEntity
  8
0
  6
Continuous
 62
     7
370
    25
100
AcDbLine
 10
188.9916336276
 20
131.3949519231
 30
0.0
 11
188.9916336276
 21
113.370920112
 31
0.0
  0
LINE
  5
A2
330
1F
100
AcDbEntity
  8
0
  6
Continuous
 62
     7
370
    25
100
AcDbLine
 10
258.9916336276
 20
113.3736157031
 30
0.0
 11
258.9916336276
 21
131.3949519231
 31
0.0
  0
LINE
  5
A3
330
1F
100
AcDbEntity
  8
0
  6
Continuous
 62
     7
370
    25
100
AcDbLine
 10
244.9916336276
 20
131.3949519231
 30
0.0
 11
244.9916336276
 21
113.9477943437
 31
0.0
  0
LINE
  5
A4
330
1F
100
AcDbEntity
  8
0
  6
Continuous
 62
     7
370
    25
100
AcDbLine
 10
183.9916336276
 20
95.8949519231
 30
0.0
 11
183.9916336276
 21
113.0449519231
 31
0.0
  0
LINE
  5
A5
330
1F
100
AcDbEntity
  8
0
  6
Continuous
 62
     7
370
    25
100
AcDbLine
 10
183.9916336276
 20
78.7449519231
 30
0.0
 11
183.9916336276
 21
95.8949519231
 31
0.0
  0
SPLINE
  5
A6
330
1F
100
AcDbEntity
  8
0
  6
Continuous
 62
     7
370
    25
100
AcDbSpline
210
0.0
220
0.0
230
1.0
 70
     8
 71
     3
 72
    27
 73
    23
 74
     0
 42
0.00000001
 43
0.00000001
 40
0.0
 40
0.0
 40
0.0
 40
0.0
 40
0.0477460363622199
 40
0.0964085693559404
 40
0.1464027113818609
 40
0.1966819455780648
 40
0.2482410318408388
 40
0.3019434982576092
 40
0.3571376190619678
 40
0.411767654045237
 40
0.4681913663888919
 40
0.5193782536979009
 40
0.5722121582925538
 40
0.6209792843527855
 40
0.671067005450173
 40
0.7217051594593347
 40
0.7736575098273608
 40
0.8271214024963929
 40
0.8821547903306174
 40
0.9350950523949725
 40
0.9897307927526389
 40
1.0
 40
1.0
 40
1.0
 40
1.0
 10
202.9838746316765
 20
113.9463587591795
 30
0.0
 10
202.9715580603583
 20
113.9412747285735
 30
0.0
 10
202.9466884981783
 20
113.9310090781735
 30
0.0
 10
202.6889846853796
 20
113.8265966218871
 30
0.0
 10
202.2819905391446
 20
113.6677944732749
 30
0.0
 10
201.7105542556902
 20
113.4575127942095
 30
0.0
 10
200.9844681582806
 20
113.2124838123325
 30
0.0
 10
200.1021113081884
 20
112.949541768334
 30
0.0
 10
199.0831895765578
 20
112.6963689518628
 30
0.0
 10
197.9489403362277
 20
112.4807588198302
 30
0.0
 10
196.7736811493809
 20
112.3351501943066
 30
0.0
 10
195.5835876536044
 20
112.2698273087549
 30
0.0
 10
194.4587927595292
 20
112.2845036289349
 30
0.0
 10
193.3860717282892
 20
112.3676299841675
 30
0.0
 10
192.3973711813908
 20
112.5022507405279
 30
0.0
 10
191.482915983731
 20
112.6758503620706
 30
0.0
 10
190.6673262725562
 20
112.8692357712541
 30
0.0
 10
189.9753971597874
 20
113.0609014182582
 30
0.0
 10
189.4442650516865
 20
113.2250411050169
 30
0.0
 10
189.1137903045797
 20
113.3340609977033
 30
0.0
 10
188.9732946129603
 20
113.382054107457
 30
0.0
 10
189.0016363516053
 20
113.3724241698005
 30
0.0
 10
189.0061205581048
 20
113.3709005290116
 30
0.0
  0
LINE
  5
A7
330
1F
100
AcDbEntity
  8
0
  6
Continuous
 62
     7
370
    25
100
AcDbLine
 10
263.9916336276
 20
95.8949519231
 30
0.0
 11
263.9916336276
 21
113.0449519231
 31
0.0
  0
LINE
  5
A8
330
1F
100
AcDbEntity
  8
0
  6
Continuous
 62
     7
370
    25
100
AcDbLine
 10
263.9916336276
 20
78.7449519231
 30
0.0
 11
263.9916336276
 21
95.8949519231
 31
0.0
  0
SPLINE
  5
A9
330
1F
100
AcDbEntity
  8
0
  6
Continuous
 62
     7
370
    25
100
AcDbSpline
210
0.0
220
0.0
230
1.0
 70
     8
 71
     3
 72
    27
 73
    23
 74
     0
 42
0.00000001
 43
0.00000001
 40
0.0
 40
0.0
 40
0.0
 40
0.0
 40
0.0039659317924368
 40
0.0567270724811024
 40
0.1064761609830929
 40
0.1575904468110307
 40
0.208867576674345
 40
0.2615049630148245
 40
0.3150627335094004
 40
0.3702118589293865
 40
0.4228848474387644
 40
0.4772928311276824
 40
0.5267251016501577
 40
0.5776133525617005
 40
0.6268851276981903
 40
0.6774141259428789
 40
0.7300550099830242
 40
0.7840918038398949
 40
0.838964507427425
 40
0.8955582464390649
 40
0.9481015845527176
 40
1.0
 40
1.0
 40
1.0
 40
1.0
 10
258.9850530429548
 20
113.3735913220692
 30
0.0
 10
258.9872179366552
 20
113.3743254975187
 30
0.0
 10
259.0181836940812
 20
113.384826844016
 30
0.0
 10
258.9009916172239
 20
113.3447961713699
 30
0.0
 10
258.6254502141857
 20
113.2532108472708
 30
0.0
 10
258.1665251333847
 20
113.1087324366787
 30
0.0
 10
257.5458633278317
 20
112.9304212720989
 30
0.0
 10
256.7672374278645
 20
112.7348837035493
 30
0.0
 10
255.8354794266215
 20
112.5438047908951
 30
0.0
 10
254.7879738722872
 20
112.3874357939392
 30
0.0
 10
253.6486555012457
 20
112.2892881386509
 30
0.0
 10
252.4983996833615
 20
112.2680999039749
 30
0.0
 10
251.3504985726068
 20
112.3248231265131
 30
0.0
 10
250.2619332453671
 20
112.4487217513869
 30
0.0
 10
249.2168809287374
 20
112.6310078754005
 30
0.0
 10
248.2348896812704
 20
112.8563366382601
 30
0.0
 10
247.3233251586438
 20
113.1111757603364
 30
0.0
 10
246.5145449154057
 20
113.3725842391392
 30
0.0
 10
245.8388726204378
 20
113.6152655693729
 30
0.0
 10
245.3511938290686
 20
113.8037492217219
 30
0.0
 10
245.0459920619918
 20
113.9271161551707
 30
0.0
 10
245.0125862257492
 20
113.9409018185407
 30
0.0
 10
244.9959864473218
 20
113.9477520873307
 30
0.0
  0
LINE
  5
AA
330
1F
100
AcDbEntity
  8
0
  6
Continuous
 62
     7
370
    25
100
AcDbLine
 10
202.9916336276
 20
131.3949519231
 30
0.0
 11
188.9916336276
 21
131.3949519231
 31
0.0
  0
LINE
  5
AB
330
1F
100
AcDbEntity
  8
0
  6
Continuous
 62
     7
370
    25
100
AcDbLine
 10
258.9916336276
 20
131.3949519231
 30
0.0
 11
244.9916336276
 21
131.3949519231
 31
0.0
  0
LINE
  5
AC
330
1F
100
AcDbEntity
  8
0
  6
Continuous
 62
     1
370
    25
100
AcDbLine
 10
211.4916336276
 20
95.8949519231
 30
0.0
 11
211.4916336276
 21
114.0449519231
 31
0.0
  0
LINE
  5
AD
330
1F
100
AcDbEntity
  8
0
  6
Continuous
 62
     1
370
    25
100
AcDbLine
 10
211.4916336276
 20
77.7449519231
 30
0.0
 11
211.4916336276
 21
95.8949519231
 31
0.0
  0
LINE
  5
AE
330
1F
100
AcDbEntity
  8
0
  6
Continuous
 62
     1
370
    25
100
AcDbLine
 10
236.4916336276
 20
95.8949519231
 30
0.0
 11
236.4916336276
 21
114.0449519231
 31
0.0
  0
LINE
  5
AF
330
1F
100
AcDbEntity
  8
0
  6
Continuous
 62
     1
370
    25
100
AcDbLine
 10
236.4916336276
 20
77.7449519231
 30
0.0
 11
236.4916336276
 21
95.8949519231
 31
0.0
  0
ARC
  5
B0
330
1F
100
AcDbEntity
  8
0
  6
Continuous
 62
     7
370
    25
100
AcDbCircle
 10
498.7582231786
 20
181.4481935886
 30
0.0
 40
378.6249999999992
100
AcDbArc
 50
180.0
 51
184.1651305595
  0
ARC
  5
B1
330
1F
100
AcDbEntity
  8
0
  6
Continuous
 62
     7
370
    25
100
AcDbCircle
 10
-222.1917768214
 20
181.4481935886
 30
0.0
 40
378.6249999999992
100
AcDbArc
 50
355.8348694405
 51
0.0
  0
LINE
  5
B2
330
1F
100
AcDbEntity
  8
0
  6
Continuous
 62
     7
370
    25
100
AcDbLine
 10
156.4332231786
 20
181.4481935886
 30
0.0
 11
156.4332231786
 21
206.4481935886
 31
0.0
  0
LINE
  5
B3
330
1F
100
AcDbEntity
  8
0
  6
Continuous
 62
     7
370
    25
100
AcDbLine
 10
120.1332231786
 20
206.4481935886
 30
0.0
 11
120.1332231786
 21
181.4481935886
 31
0.0
  0
ARC
  5
B4
330
1F
100
AcDbEntity
  8
0
  6
Continuous
 62
     7
370
    25
100
AcDbCircle
 10
498.7582231786
 20
206.4481935886
 30
0.0
 40
378.6249999999992
100
AcDbArc
 50
175.8348694405
 51
180.0
  0
ARC
  5
B5
330
1F
100
AcDbEntity
  8
0
  6
Continuous
 62
     7
370
    25
100
AcDbCircle
 10
-222.1917768214
 20
206.4481935886
 30
0.0
 40
378.6249999999992
100
AcDbArc
 50
0.0
 51
4.1651305595
  0
LINE
  5
B6
330
1F
100
AcDbEntity
  8
0
  6
Continuous
 62
     7
370
    25
100
AcDbLine
 10
155.4332231786
 20
153.9481935886
 30
0.0
 11
121.1332231786
 21
153.9481935886
 31
0.0
  0
LINE
  5
B7
330
1F
100
AcDbEntity
  8
0
  6
Continuous
 62
     7
370
    25
100
AcDbLine
 10
155.4332231786
 20
233.9481935886
 30
0.0
 11
121.1332231786
 21
233.9481935886
 31
0.0
  0
LINE
  5
B8
330
1F
100
AcDbEntity
  8
0
  6
Continuous
 62
     1
370
    25
100
AcDbLine
 10
156.4332231786
 20
181.4481935886
 30
0.0
 11
120.1332231786
 21
181.4481935886
 31
0.0
  0
LINE
  5
B9
330
1F
100
AcDbEntity
  8
0
  6
Continuous
 62
     1
370
    25
100
AcDbLine
 10
156.4332231786
 20
206.4481935886
 30
0.0
 11
120.1332231786
 21
206.4481935886
 31
0.0
  0
ARC
  5
BA
330
1F
100
AcDbEntity
  8
0
  6
Continuous
 62
     7
370
    25
100
AcDbCircle
 10
62.8418569712
 20
456.3699519231
 30
0.0
 40
378.6249999999992
100
AcDbArc
 50
270.0
 51
274.1651305595
  0
ARC
  5
BB
330
1F
100
AcDbEntity
  8
0
  6
Continuous
 62
     7
370
    25
100
AcDbCircle
 10
62.8418569712
 20
-264.5800480769
 30
0.0
 40
378.6249999999992
100
AcDbArc
 50
88.7124374151
 51
90.0
  0
ARC
  5
BC
330
1F
100
AcDbEntity
  8
0
  6
Continuous
 62
     7
370
    25
100
AcDbCircle
 10
62.8418569712
 20
-264.5800480769
 30
0.0
 40
378.6249999999992
100
AcDbArc
 50
85.8348694405
 51
86.5952995624
  0
LINE
  5
BD
330
1F
100
AcDbEntity
  8
0
  6
Continuous
 62
     7
370
    25
100
AcDbLine
 10
62.8418569712
 20
114.0449519231
 30
0.0
 11
37.8418569712
 21
114.0449519231
 31
0.0
  0
LINE
  5
BE
330
1F
100
AcDbEntity
  8
0
  6
Continuous
 62
     7
370
    25
100
AcDbLine
 10
37.8418569712
 20
77.7449519231
 30
0.0
 11
62.8418569712
 21
77.7449519231
 31
0.0
  0
ARC
  5
BF
330
1F
100
AcDbEntity
  8
0
  6
Continuous
 62
     7
370
    25
100
AcDbCircle
 10
37.8418569712
 20
456.3699519231
 30
0.0
 40
378.6249999999992
100
AcDbArc
 50
265.8348694405
 51
270.0
  0
ARC
  5
C0
330
1F
100
AcDbEntity
  8
0
  6
Continuous
 62
     7
370
    25
100
AcDbCircle
 10
37.8418569712
 20
-264.5800480769
 30
0.0
 40
378.6249999999992
100
AcDbArc
 50
93.405867299
 51
94.1651305595
  0
ARC
  5
C1
330
1F
100
AcDbEntity
  8
0
  6
Continuous
 62
     7
370
    25
100
AcDbCircle
 10
37.8418569712
 20
-264.5800480769
 30
0.0
 40
378.6249999999992
100
AcDbArc
 50
90.0
 51
91.287032362
  0
LINE
  5
C2
330
1F
100
AcDbEntity
  8
0
  6
Continuous
 62
     7
370
    25
100
AcDbLine
 10
85.3418569712
 20
113.370920112
 30
0.0
 11
85.3418569712
 21
131.3949519231
 31
0.0
  0
LINE
  5
C3
330
1F
100
AcDbEntity
  8
0
  6
Continuous
 62
     7
370
    25
100
AcDbLine
 10
71.3418569712
 20
131.3949519231
 30
0.0
 11
71.3418569712
 21
113.9463897997
 31
0.0
  0
LINE
  5
C4
330
1F
100
AcDbEntity
  8
0
  6
Continuous
 62
     7
370
    25
100
AcDbLine
 10
29.3418569712
 20
113.9477943437
 30
0.0
 11
29.3418569712
 21
131.3949519231
 31
0.0
  0
LINE
  5
C5
330
1F
100
AcDbEntity
  8
0
  6
Continuous
 62
     7
370
    25
100
AcDbLine
 10
15.3418569712
 20
131.3949519231
 30
0.0
 11
15.3418569712
 21
113.3736157031
 31
0.0
  0
LINE
  5
C6
330
1F
100
AcDbEntity
  8
0
  6
Continuous
 62
     7
370
    25
100
AcDbLine
 10
90.3418569712
 20
113.0449519231
 30
0.0
 11
90.3418569712
 21
78.7449519231
 31
0.0
  0
SPLINE
  5
C7
330
1F
100
AcDbEntity
  8
0
  6
Continuous
 62
     7
370
    25
100
AcDbSpline
210
0.0
220
0.0
230
1.0
 70
     8
 71
     3
 72
    13
 73
     9
 74
     0
 42
0.00000001
 43
0.00000001
 40
0.0
 40
0.0
 40
0.0
 40
0.0
 40
0.1961722062628771
 40
0.3977962369942046
 40
0.5940438773370048
 40
0.7965628777768039
 40
0.9829764452758666
 40
1.0
 40
1.0
 40
1.0
 40
1.0
 10
73.73860154570619
 20
113.0979729154774
 30
0.0
 10
73.46001948983432
 20
113.18459367016
 30
0.0
 10
72.89511330036405
 20
113.3602424581038
 30
0.0
 10
72.23580847340071
 20
113.5985055076344
 30
0.0
 10
71.72520981172015
 20
113.7941797733882
 30
0.0
 10
71.436313580857
 20
113.9107413557546
 30
0.0
 10
71.31652085523612
 20
113.9598783239204
 30
0.0
 10
71.34707544297989
 20
113.9473965810117
 30
0.0
 10
71.34963224132055
 20
113.9463521126711
 30
0.0
  0
SPLINE
  5
C8
330
1F
100
AcDbEntity
  8
0
  6
Continuous
 62
     7
370
    25
100
AcDbSpline
210
0.0
220
0.0
230
1.0
 70
     8
 71
     3
 72
    22
 73
    18
 74
     0
 42
0.00000001
 43
0.00000001
 40
0.0
 40
0.0
 40
0.0
 40
0.0
 40
0.0551233114626136
 40
0.1263984928872108
 40
0.1950824717547342
 40
0.2655993823053313
 40
0.3373223512355291
 40
0.4109963366629583
 40
0.4848478204023217
 40
0.5610125732895499
 40
0.6318016507506682
 40
0.7048855625664396
 40
0.7720046474282778
 40
0.8409804795158003
 40
0.9099982507376861
 40
0.9807592298797755
 40
1.0
 40
1.0
 40
1.0
 40
1.0
 10
85.32737831087584
 20
113.3709033363731
 30
0.0
 10
85.32218044310407
 20
113.3691124503573
 30
0.0
 10
85.3102616625529
 20
113.3650059246913
 30
0.0
 10
85.07585446127871
 20
113.2859860128671
 30
0.0
 10
84.67091074071557
 20
113.156165479101
 30
0.0
 10
84.09996233635935
 20
112.9867956691861
 30
0.0
 10
83.36613041332144
 20
112.793822803655
 30
0.0
 10
82.4821181836323
 20
112.5994940635335
 30
0.0
 10
81.4586240703964
 20
112.4284538129263
 30
0.0
 10
80.35145548901589
 20
112.3115967008576
 30
0.0
 10
79.18706056776776
 20
112.2662597918364
 30
0.0
 10
78.04652823250731
 20
112.2994565507556
 30
0.0
 10
76.92968839186825
 20
112.4057844675633
 30
0.0
 10
75.87582736303419
 20
112.5706932863144
 30
0.0
 10
74.87343616809126
 20
112.7850248653661
 30
0.0
 10
74.17580931048492
 20
112.9693683653174
 30
0.0
 10
73.81560648979234
 20
113.0753219312267
 30
0.0
 10
73.73860154570619
 20
113.0979729154774
 30
0.0
  0
LINE
  5
C9
330
1F
100
AcDbEntity
  8
0
  6
Continuous
 62
     7
370
    25
100
AcDbLine
 10
10.3418569712
 20
113.0449519231
 30
0.0
 11
10.3418569712
 21
78.7449519231
 31
0.0
  0
SPLINE
  5
CA
330
1F
100
AcDbEntity
  8
0
  6
Continuous
 62
     7
370
    25
100
AcDbSpline
210
0.0
220
0.0
230
1.0
 70
     8
 71
     3
 72
    12
 73
     8
 74
     0
 42
0.00000001
 43
0.00000001
 40
0.0
 40
0.0
 40
0.0
 40
0.0
 40
0.2020151169803619
 40
0.4097305723388746
 40
0.6117931066525144
 40
0.8201173514323044
 40
1.0
 40
1.0
 40
1.0
 40
1.0
 10
17.59999178133522
 20
112.7337672296662
 30
0.0
 10
17.3280068162168
 20
112.7989021116163
 30
0.0
 10
16.77636218144239
 20
112.9310098115723
 30
0.0
 10
16.14168520317379
 20
113.1168423112113
 30
0.0
 10
15.67027005995141
 20
113.2651256647179
 30
0.0
 10
15.38837406435066
 20
113.3599168755438
 30
0.0
 10
15.3610951888697
 20
113.3692573301649
 30
0.0
 10
15.34845503111992
 20
113.3735853978651
 30
0.0
  0
SPLINE
  5
CB
330
1F
100
AcDbEntity
  8
0
  6
Continuous
 62
     7
370
    25
100
AcDbSpline
210
0.0
220
0.0
230
1.0
 70
     8
 71
     3
 72
    22
 73
    18
 74
     0
 42
0.00000001
 43
0.00000001
 40
0.0
 40
0.0
 40
0.0
 40
0.0
 40
0.0032211120886969
 40
0.0698940803778432
 40
0.1385182158049171
 40
0.205143471222336
 40
0.2734906680421642
 40
0.3442386379413933
 40
0.4168379779596094
 40
0.4911483407299113
 40
0.5677365236822368
 40
0.6396521053973693
 40
0.7139832098745429
 40
0.7808759306573562
 40
0.8497224114863853
 40
0.9236911459739826
 40
1.0
 40
1.0
 40
1.0
 40
1.0
 10
29.33752569251792
 20
113.9477608782707
 30
0.0
 10
29.33896637031731
 20
113.9483489081023
 30
0.0
 10
29.37022726628633
 20
113.9611084157455
 30
0.0
 10
29.26193700760246
 20
113.9166720375856
 30
0.0
 10
29.01358207379152
 20
113.8164035735015
 30
0.0
 10
28.57893493754949
 20
113.6475484819855
 30
0.0
 10
27.99608550153356
 20
113.4346640134558
 30
0.0
 10
27.25283001348265
 20
113.186416985814
 30
0.0
 10
26.35745153766132
 20
112.9237634518994
 30
0.0
 10
25.32007414621571
 20
112.671399469087
 30
0.0
 10
24.18937629097931
 20
112.4640216801701
 30
0.0
 10
22.9952995864859
 20
112.3239716159965
 30
0.0
 10
21.82743461697626
 20
112.267933990001
 30
0.0
 10
20.69043037935654
 20
112.2905868380623
 30
0.0
 10
19.60361996394241
 20
112.3813918873507
 30
0.0
 10
18.5402557684016
 20
112.5342447148002
 30
0.0
 10
17.91665003560133
 20
112.6665728543489
 30
0.0
 10
17.59999178133522
 20
112.7337672296662
 30
0.0
  0
LINE
  5
CC
330
1F
100
AcDbEntity
  8
0
  6
Continuous
 62
     7
370
    25
100
AcDbLine
 10
85.3418569712
 20
131.3949519231
 30
0.0
 11
71.3418569712
 21
131.3949519231
 31
0.0
  0
LINE
  5
CD
330
1F
100
AcDbEntity
  8
0
  6
Continuous
 62
     7
370
    25
100
AcDbLine
 10
29.3418569712
 20
131.3949519231
 30
0.0
 11
15.3418569712
 21
131.3949519231
 31
0.0
  0
LINE
  5
CE
330
1F
100
AcDbEntity
  8
0
  6
Continuous
 62
     1
370
    25
100
AcDbLine
 10
62.8418569712
 20
114.0449519231
 30
0.0
 11
62.8418569712
 21
77.7449519231
 31
0.0
  0
LINE
  5
CF
330
1F
100
AcDbEntity
  8
0
  6
Continuous
 62
     1
370
    25
100
AcDbLine
 10
37.8418569712
 20
114.0449519231
 30
0.0
 11
37.8418569712
 21
77.7449519231
 31
0.0
  0
ARC
  5
D0
330
1F
100
AcDbEntity
  8
0
  6
Continuous
 62
     7
370
    25
100
AcDbCircle
 10
-222.1917768214
 20
31.6913870952
 30
0.0
 40
378.6249999999992
100
AcDbArc
 50
0.0
 51
4.1651305595
  0
ARC
  5
D1
330
1F
100
AcDbEntity
  8
0
  6
Continuous
 62
     7
370
    25
100
AcDbCircle
 10
498.7582231786
 20
31.6913870952
 30
0.0
 40
378.6249999999992
100
AcDbArc
 50
175.8348694405
 51
180.0
  0
LINE
  5
D2
330
1F
100
AcDbEntity
  8
0
  6
Continuous
 62
     7
370
    25
100
AcDbLine
 10
120.1332231786
 20
31.6913870952
 30
0.0
 11
120.1332231786
 21
6.6913870952
 31
0.0
  0
LINE
  5
D3
330
1F
100
AcDbEntity
  8
0
  6
Continuous
 62
     7
370
    25
100
AcDbLine
 10
156.4332231786
 20
6.6913870952
 30
0.0
 11
156.4332231786
 21
31.6913870952
 31
0.0
  0
ARC
  5
D4
330
1F
100
AcDbEntity
  8
0
  6
Continuous
 62
     7
370
    25
100
AcDbCircle
 10
-222.1917768214
 20
6.6913870952
 30
0.0
 40
378.6249999999992
100
AcDbArc
 50
355.8348694405
 51
0.0
  0
ARC
  5
D5
330
1F
100
AcDbEntity
  8
0
  6
Continuous
 62
     7
370
    25
100
AcDbCircle
 10
498.7582231786
 20
6.6913870952
 30
0.0
 40
378.6249999999992
100
AcDbArc
 50
180.0
 51
184.1651305595
  0
CIRCLE
  5
D6
330
1F
100
AcDbEntity
  8
0
  6
Continuous
 62
     7
370
    25
100
AcDbCircle
 10
138.2832231786
 20
47.1913870952
 30
0.0
 40
5.0
  0
CIRCLE
  5
D7
330
1F
100
AcDbEntity
  8
0
  6
Continuous
 62
     7
370
    25
100
AcDbCircle
 10
138.2832231786
 20
47.1913870952
 30
0.0
 40
7.000000000000007
  0
CIRCLE
  5
D8
330
1F
100
AcDbEntity
  8
0
  6
Continuous
 62
     7
370
    25
100
AcDbCircle
 10
138.2832231786
 20
-8.8086129048
 30
0.0
 40
7.000000000000017
  0
CIRCLE
  5
D9
330
1F
100
AcDbEntity
  8
0
  6
Continuous
 62
     7
370
    25
100
AcDbCircle
 10
138.2832231786
 20
-8.8086129048
 30
0.0
 40
5.000000000000009
  0
LINE
  5
DA
330
1F
100
AcDbEntity
  8
0
  6
Continuous
 62
     7
370
    25
100
AcDbLine
 10
121.1332231786
 20
59.1913870952
 30
0.0
 11
155.4332231786
 21
59.1913870952
 31
0.0
  0
LINE
  5
DB
330
1F
100
AcDbEntity
  8
0
  6
Continuous
 62
     7
370
    25
100
AcDbLine
 10
121.1332231786
 20
-20.8086129048
 30
0.0
 11
155.4332231786
 21
-20.8086129048
 31
0.0
  0
LINE
  5
DC
330
1F
100
AcDbEntity
  8
0
  6
Continuous
 62
     1
370
    25
100
AcDbLine
 10
120.1332231786
 20
31.6913870952
 30
0.0
 11
156.4332231786
 21
31.6913870952
 31
0.0
  0
LINE
  5
DD
330
1F
100
AcDbEntity
  8
0
  6
Continuous
 62
     1
370
    25
100
AcDbLine
 10
120.1332231786
 20
6.6913870952
 30
0.0
 11
156.4332231786
 21
6.6913870952
 31
0.0
  0
INSERT
  5
E9
330
1F
100
AcDbEntity
  8
FORMAT
 62
     7
100
AcDbBlockReference
  2
SW_CENTERMARKSYMBOL_1
 10
138.2832231786
 20
47.1913870952
 30
0.0
  0
INSERT
  5
F5
330
1F
100
AcDbEntity
  8
FORMAT
 62
     7
100
AcDbBlockReference
  2
SW_CENTERMARKSYMBOL_2
 10
138.2832231786
 20
-8.8086129048
 30
0.0
  0
LINE
  5
F6
330
1F
100
AcDbEntity
  8
0
  6
Continuous
 62
     7
370
    25
100
AcDbLine
 10
214.2226122494
 20
26.7377471615
 30
0.0
 11
214.2226122494
 21
41.591724524
 31
0.0
  0
LINE
  5
F7
330
1F
100
AcDbEntity
  8
0
  6
Continuous
 62
     7
370
    25
100
AcDbLine
 10
200.2226122494
 20
41.591724524
 30
0.0
 11
200.2226122494
 21
26.3932704885
 31
0.0
  0
SPLINE
  5
F8
330
1F
100
AcDbEntity
  8
0
  6
Continuous
 62
     7
370
    25
100
AcDbSpline
210
0.0
220
0.0
230
1.0
 70
     8
 71
     3
 72
    11
 73
     7
 74
     0
 42
0.00000001
 43
0.00000001
 40
0.0
 40
0.0
 40
0.0
 40
0.0
 40
0.1925406971744788
 40
0.5126868279147906
 40
0.8325838616716327
 40
1.0
 40
1.0
 40
1.0
 40
1.0
 10
200.2226122493931
 20
29.27094776838139
 30
0.0
 10
199.5376959048447
 20
28.83894516500288
 30
0.0
 10
197.7139381579028
 20
27.688632282442
 30
0.0
 10
194.7936284261446
 20
25.75996304635051
 30
0.0
 10
191.9814372760866
 20
23.8618380916212
 30
0.0
 10
190.3103816149194
 20
22.68227749247447
 30
0.0
 10
189.7362914779193
 20
22.27704017949884
 30
0.0
  0
SPLINE
  5
F9
330
1F
100
AcDbEntity
  8
0
  6
Continuous
 62
     7
370
    25
100
AcDbSpline
210
0.0
220
0.0
230
1.0
 70
     8
 71
     3
 72
    13
 73
     9
 74
     0
 42
0.00000001
 43
0.00000001
 40
0.0
 40
0.0
 40
0.0
 40
0.0
 40
0.1497458148357229
 40
0.3257213316184976
 40
0.5017222586824824
 40
0.6777283505594526
 40
0.8537197909842434
 40
0.9999999999999999
 40
0.9999999999999999
 40
0.9999999999999999
 40
0.9999999999999999
 10
206.8566112857619
 20
-7.378410893208454
 30
0.0
 10
207.8950659633004
 20
-6.893438154520689
 30
0.0
 10
210.1538726001629
 20
-5.838544123476515
 30
0.0
 10
213.6033436654888
 20
-4.142645007052491
 30
0.0
 10
217.2096442473166
 20
-2.306617464502912
 30
0.0
 10
220.7867186774724
 20
-0.4103148423727742
 30
0.0
 10
224.1381943088945
 20
1.426541465893789
 30
0.0
 10
226.28175099413
 20
2.657820600331755
 30
0.0
 10
227.254718738881
 20
3.216702430163802
 30
0.0
  0
LINE
  5
FA
330
1F
100
AcDbEntity
  8
0
  6
Continuous
 62
     7
370
    25
100
AcDbLine
 10
226.7861743888
 20
44.8555768186
 30
0.0
 11
214.2226122494
 21
37.6027867756
 31
0.0
  0
LINE
  5
FB
330
1F
100
AcDbEntity
  8
0
  6
Continuous
 62
     7
370
    25
100
AcDbLine
 10
227.2570298565
 20
3.2129017164
 30
0.0
 11
244.9346993861
 21
13.4180031142
 31
0.0
  0
SPLINE
  5
FC
330
1F
100
AcDbEntity
  8
0
  6
Continuous
 62
     7
370
    25
100
AcDbSpline
210
0.0
220
0.0
230
1.0
 70
     8
 71
     3
 72
    11
 73
     7
 74
     0
 42
0.00000001
 43
0.00000001
 40
0.0
 40
0.0
 40
0.0
 40
0.0
 40
0.2260934359191304
 40
0.499458647877965
 40
0.7728011038217772
 40
1.0
 40
1.0
 40
1.0
 40
1.0
 10
239.8205919958399
 20
51.88493186522805
 30
0.0
 10
238.8250611617118
 20
51.3814126966355
 30
0.0
 10
236.6258532001311
 20
50.26909821433526
 30
0.0
 10
233.2569327888475
 20
48.47783993021186
 30
0.0
 10
229.9049083493478
 20
46.64212270209721
 30
0.0
 10
227.7614022168994
 20
45.41070488690418
 30
0.0
 10
226.7884511806286
 20
44.85175652597467
 30
0.0
  0
SPLINE
  5
FD
330
1F
100
AcDbEntity
  8
0
  6
Continuous
 62
     7
370
    25
100
AcDbSpline
210
0.0
220
0.0
230
1.0
 70
     8
 71
     3
 72
    14
 73
    10
 74
     0
 42
0.00000001
 43
0.00000001
 40
0.0
 40
0.0
 40
0.0
 40
0.0
 40
0.0296753089733114
 40
0.2055686434065988
 40
0.3813851747956472
 40
0.5571036767286597
 40
0.7327049462922461
 40
0.9081695852910322
 40
1.0
 40
1.0
 40
1.0
 40
1.0
 10
244.9323882685447
 20
13.42180382794762
 30
0.0
 10
245.130232220792
 20
13.53438766131012
 30
0.0
 10
246.5007491345757
 20
14.31428538418333
 30
0.0
 10
249.0128941379222
 20
15.81423771832361
 30
0.0
 10
252.4644393419888
 20
17.92370080306484
 30
0.0
 10
255.8771586296592
 20
20.08943778245991
 30
0.0
 10
259.2506037038751
 20
22.30696949951054
 30
0.0
 10
262.0616596757206
 20
24.2068305648681
 30
0.0
 10
263.7328179158675
 20
25.3862655916926
 30
0.0
 10
264.3069518255985
 20
25.79146578575977
 30
0.0
  0
LINE
  5
FE
330
1F
100
AcDbEntity
  8
0
  6
Continuous
 62
     7
370
    25
100
AcDbLine
 10
253.8205919958
 20
49.2530115171
 30
0.0
 11
253.8205919958
 21
64.451151655
 31
0.0
  0
LINE
  5
FF
330
1F
100
AcDbEntity
  8
0
  6
Continuous
 62
     7
370
    25
100
AcDbLine
 10
239.8205919958
 20
64.451151655
 30
0.0
 11
239.8205919958
 21
49.597589336
 31
0.0
  0
SPLINE
  5
100
330
1F
100
AcDbEntity
  8
0
  6
Continuous
 62
     7
370
    25
100
AcDbSpline
210
0.0
220
0.0
230
1.0
 70
     8
 71
     3
 72
    17
 73
    13
 74
     0
 42
0.00000001
 43
0.00000001
 40
0.0
 40
0.0
 40
0.0
 40
0.0
 40
0.1035760268297691
 40
0.2100746983092032
 40
0.3136750366808866
 40
0.4204858431647423
 40
0.5204852370312657
 40
0.6235690974404627
 40
0.7207680591703726
 40
0.8206343212797297
 40
0.9208187454225856
 40
1.0
 40
1.0
 40
1.0
 40
1.0
 10
207.5106726200834
 20
22.31651470518321
 30
0.0
 10
207.1232877743113
 20
22.37124809443663
 30
0.0
 10
206.3375870953414
 20
22.48225930607301
 30
0.0
 10
205.1846415162639
 20
22.78194362830513
 30
0.0
 10
204.0737651363008
 20
23.15750120225592
 30
0.0
 10
203.0690428363049
 20
23.58815242572137
 30
0.0
 10
202.1806240554812
 20
24.05743188295363
 30
0.0
 10
201.4549171771718
 20
24.53547126827042
 30
0.0
 10
200.8822959639487
 20
25.02372582506351
 30
0.0
 10
200.4840542980765
 20
25.51081369115565
 30
0.0
 10
200.2527093171028
 20
25.96833457364892
 30
0.0
 10
200.2434857048636
 20
26.26343092400174
 30
0.0
 10
200.2394139270629
 20
26.39370166146314
 30
0.0
  0
SPLINE
  5
101
330
1F
100
AcDbEntity
  8
0
  6
Continuous
 62
     7
370
    25
100
AcDbSpline
210
0.0
220
0.0
230
1.0
 70
     8
 71
     3
 72
    17
 73
    13
 74
     0
 42
0.00000001
 43
0.00000001
 40
0.0
 40
0.0
 40
0.0
 40
0.0
 40
0.0070823903949288
 40
0.1170082983860595
 40
0.2295249424578394
 40
0.345490535951014
 40
0.4543811349118685
 40
0.5669291849297713
 40
0.6682144454872762
 40
0.7724579815197813
 40
0.8844573509281506
 40
1.0
 40
1.0
 40
1.0
 40
1.0
 10
214.2169663038325
 20
26.73751806189214
 30
0.0
 10
214.2188253149228
 20
26.71875708104291
 30
0.0
 10
214.2495380703951
 20
26.40880658088506
 30
0.0
 10
214.1315353280261
 20
25.79042022968059
 30
0.0
 10
213.8390898882471
 20
24.91746330338193
 30
0.0
 10
213.3276782261132
 20
24.11717720610991
 30
0.0
 10
212.6372752352025
 20
23.42731664035862
 30
0.0
 10
211.8177651672929
 20
22.90098923263437
 30
0.0
 10
210.8867045488352
 20
22.52876793277962
 30
0.0
 10
209.8648897891871
 20
22.30550038617279
 30
0.0
 10
208.728215360074
 20
22.21836394766517
 30
0.0
 10
207.9207116770324
 20
22.28345989508936
 30
0.0
 10
207.5106726200834
 20
22.31651470518321
 30
0.0
  0
LWPOLYLINE
  5
102
330
1F
100
AcDbEntity
  8
0
  6
Continuous
 62
     7
370
    25
100
AcDbPolyline
 90
       63
 70
   128
 43
0.0
 10
212.1723597177
 20
44.4491529153
 10
212.6477218098
 20
44.1454111388
 10
213.0674149364
 20
43.8154650819
 10
213.4271324782
 20
43.4627004376
 10
213.7231832464
 20
43.0907370487
 10
213.9525293595
 20
42.7033917627
 10
214.112817416
 20
42.3046392666
 10
214.2024026435
 20
41.8985713004
 10
214.2203657765
 20
41.4893546712
 10
214.1665224887
 20
41.0811884951
 10
214.0414252854
 20
40.6782611095
 10
213.8463578329
 20
40.2847070947
 10
213.5833217874
 20
39.9045648474
 10
213.2550162546
 20
39.5417351415
 10
212.8648100936
 20
39.1999411007
 10
212.4167073475
 20
38.8826899945
 10
211.9153061571
 20
38.5932372484
 10
211.3657515769
 20
38.3345530394
 10
210.7736827807
 20
38.1092918174
 10
210.1451751954
 20
37.9197650675
 10
209.4866781594
 20
37.7679175906
 10
208.8049487435
 20
37.6553075473
 10
208.1069824138
 20
37.583090469
 10
207.3999412496
 20
37.5520074006
 10
206.6910804498
 20
37.5623772965
 10
205.9876738856
 20
37.6140937476
 10
205.2969394601
 20
37.706626073
 10
204.6259650433
 20
37.8390247659
 10
203.9816357407
 20
38.0099312365
 10
203.3705632427
 20
38.2175917532
 10
202.7990179803
 20
38.459875438
 10
202.2728647811
 20
38.7342961326
 10
201.797502689
 20
39.0380379091
 10
201.3778095624
 20
39.3679839661
 10
201.0180920206
 20
39.7207486103
 10
200.7220412524
 20
40.0927119993
 10
200.4926951393
 20
40.4800572852
 10
200.3324070828
 20
40.8788097814
 10
200.2428218553
 20
41.2848777475
 10
200.2248587223
 20
41.6940943768
 10
200.27870201
 20
42.1022605528
 10
200.4037992134
 20
42.5051879384
 10
200.5988666659
 20
42.8987419532
 10
200.8619027114
 20
43.2788842005
 10
201.1902082442
 20
43.6417139064
 10
201.5804144052
 20
43.9835079472
 10
202.0285171512
 20
44.3007590535
 10
202.5299183417
 20
44.5902117995
 10
203.0794729219
 20
44.8488960086
 10
203.6715417181
 20
45.0741572305
 10
204.3000493034
 20
45.2636839804
 10
204.9585463393
 20
45.4155314573
 10
205.6402757553
 20
45.5281415006
 10
206.3382420849
 20
45.600358579
 10
207.0452832492
 20
45.6314416474
 10
207.754144049
 20
45.6210717514
 10
208.4575506132
 20
45.5693553004
 10
209.1482850387
 20
45.476822975
 10
209.8192594555
 20
45.3444242821
 10
210.4635887581
 20
45.1735178115
 10
211.0746612561
 20
44.9658572948
 10
211.6462065185
 20
44.7235736099
 10
212.1723597177
 20
44.4491529153
  0
LWPOLYLINE
  5
103
330
1F
100
AcDbEntity
  8
0
  6
Continuous
 62
     7
370
    25
100
AcDbPolyline
 90
       53
 70
   128
 43
0.0
 10
210.7581461553
 20
43.6327448035
 10
211.1585296524
 20
43.3718456589
 10
211.5015186109
 20
43.0849883396
 10
211.7821114794
 20
42.7763558713
 10
211.9962165819
 20
42.4504488105
 10
212.1407117841
 20
42.1120196158
 10
212.2134900205
 20
41.7660033471
 10
212.2134900205
 20
41.4174457008
 10
212.1407117841
 20
41.0714294321
 10
211.9962165819
 20
40.7330002375
 10
211.7821114794
 20
40.4070931766
 10
211.5015186109
 20
40.0984607084
 10
211.1585296524
 20
39.8116033891
 10
210.7581461553
 20
39.5507042444
 10
210.3062066125
 20
39.3195677714
 10
209.8093013203
 20
39.1215644603
 10
209.2746762767
 20
38.9595816452
 10
208.7101275187
 20
38.8359814004
 10
208.1238874385
 20
38.7525660958
 10
207.5245047365
 20
38.7105521142
 10
206.9207197623
 20
38.7105521142
 10
206.3213370603
 20
38.7525660958
 10
205.7350969801
 20
38.8359814004
 10
205.1705482221
 20
38.9595816452
 10
204.6359231785
 20
39.1215644603
 10
204.1390178863
 20
39.3195677714
 10
203.6870783435
 20
39.5507042444
 10
203.2866948463
 20
39.8116033891
 10
202.9437058879
 20
40.0984607084
 10
202.6631130194
 20
40.4070931766
 10
202.4490079169
 20
40.7330002375
 10
202.3045127147
 20
41.0714294321
 10
202.2317344783
 20
41.4174457008
 10
202.2317344783
 20
41.7660033471
 10
202.3045127147
 20
42.1120196158
 10
202.4490079169
 20
42.4504488105
 10
202.6631130194
 20
42.7763558713
 10
202.9437058879
 20
43.0849883396
 10
203.2866948463
 20
43.3718456589
 10
203.6870783435
 20
43.6327448035
 10
204.1390178863
 20
43.8638812765
 10
204.6359231785
 20
44.0618845876
 10
205.1705482221
 20
44.2238674027
 10
205.7350969801
 20
44.3474676475
 10
206.3213370603
 20
44.4308829522
 10
206.9207197623
 20
44.4728969338
 10
207.5245047365
 20
44.4728969338
 10
208.1238874385
 20
44.4308829522
 10
208.7101275187
 20
44.3474676475
 10
209.2746762767
 20
44.2238674027
 10
209.8093013203
 20
44.0618845876
 10
210.3062066125
 20
43.8638812765
 10
210.7581461553
 20
43.6327448035
  0
LWPOLYLINE
  5
104
330
1F
100
AcDbEntity
  8
0
  6
Continuous
 62
     7
370
    25
100
AcDbPolyline
 90
       99
 70
   128
 43
0.0
 10
186.6104495778
 20
14.70677659
 10
186.635365556
 20
15.5896114348
 10
186.7100111056
 20
16.4400511458
 10
186.834079492
 20
17.2546010837
 10
187.0070608915
 20
18.0299140881
 10
187.2282444866
 20
18.7628042316
 10
187.4967213863
 20
19.4502599113
 10
187.8113883615
 20
20.0894562245
 10
188.1709523781
 20
20.6777665764
 10
188.5739359104
 20
21.2127734735
 10
189.0186830127
 20
21.6922784577
 10
189.5033661237
 20
22.1143111402
 10
190.0259935765
 20
22.4771372983
 10
190.5844177829
 20
22.7792660013
 10
191.1763440579
 20
23.0194557376
 10
191.7993400496
 20
23.1967195162
 10
192.4508457338
 20
23.310328922
 10
193.1281839339
 20
23.3598171097
 10
193.828571322
 20
23.3449807217
 10
194.5491298559
 20
23.2658807239
 10
195.2868986063
 20
23.1228421552
 10
196.0388459229
 20
22.9164527916
 10
196.801881893
 20
22.6475607315
 10
197.5728710382
 20
22.3172709099
 10
198.3486451986
 20
21.9269405586
 10
199.1260165518
 20
21.4781736287
 10
199.9017907121
 20
20.9728141997
 10
200.6727798573
 20
20.412938902
 10
201.4358158274
 20
19.8008483833
 10
202.1877631441
 20
19.1390578547
 10
202.9255318944
 20
18.4302867556
 10
203.6460904283
 20
17.6774475784
 10
204.3464778164
 20
16.8836339008
 10
205.0238160165
 20
16.0521076734
 10
205.6753217007
 20
15.1862858159
 10
206.2983176924
 20
14.289726176
 10
206.8902439675
 20
13.3661129095
 10
207.4486681738
 20
12.4192413416
 10
207.9712956266
 20
11.4530023705
 10
208.4559787376
 20
10.4713664795
 10
208.9007258399
 20
9.478367421
 10
209.3037093722
 20
8.4780856412
 10
209.6632733888
 20
7.4746315123
 10
209.977940364
 20
6.4721284428
 10
210.2464172637
 20
5.4746959327
 10
210.4676008588
 20
4.4864326461
 10
210.6405822583
 20
3.5113995689
 10
210.7646506447
 20
2.5536033212
 10
210.8392961943
 20
1.6169796932
 10
210.8642121725
 20
0.7053774722
 10
210.8392961943
 20
-0.1774573726
 10
210.7646506447
 20
-1.0278970836
 10
210.6405822583
 20
-1.8424470215
 10
210.4676008588
 20
-2.6177600259
 10
210.2464172637
 20
-3.3506501694
 10
209.977940364
 20
-4.0381058492
 10
209.6632733888
 20
-4.6773021623
 10
209.3037093722
 20
-5.2656125142
 10
208.9007258399
 20
-5.8006194113
 10
208.4559787376
 20
-6.2801243955
 10
207.9712956266
 20
-6.7021570781
 10
207.4486681738
 20
-7.0649832361
 10
206.8902439675
 20
-7.3671119391
 10
206.2983176924
 20
-7.6073016755
 10
205.6753217007
 20
-7.784565454
 10
205.0238160165
 20
-7.8981748598
 10
204.3464778164
 20
-7.9476630475
 10
203.6460904283
 20
-7.9328266595
 10
202.9255318944
 20
-7.8537266617
 10
202.1877631441
 20
-7.710688093
 10
201.4358158274
 20
-7.5042987295
 10
200.6727798573
 20
-7.2354066693
 10
199.9017907121
 20
-6.9051168477
 10
199.1260165518
 20
-6.5147864964
 10
198.3486451986
 20
-6.0660195665
 10
197.5728710382
 20
-5.5606601375
 10
196.801881893
 20
-5.0007848398
 10
196.0388459229
 20
-4.3886943211
 10
195.2868986063
 20
-3.7269037926
 10
194.5491298559
 20
-3.0181326934
 10
193.828571322
 20
-2.2652935162
 10
193.1281839339
 20
-1.4714798386
 10
192.4508457338
 20
-0.6399536112
 10
191.7993400496
 20
0.2258682463
 10
191.1763440579
 20
1.1224278862
 10
190.5844177829
 20
2.0460411527
 10
190.0259935765
 20
2.9929127206
 10
189.5033661237
 20
3.9591516917
 10
189.0186830127
 20
4.9407875827
 10
188.5739359104
 20
5.9337866411
 10
188.1709523781
 20
6.934068421
 10
187.8113883615
 20
7.9375225498
 10
187.4967213863
 20
8.9400256194
 10
187.2282444866
 20
9.9374581295
 10
187.0070608915
 20
10.9257214161
 10
186.834079492
 20
11.9007544932
 10
186.7100111056
 20
12.8585507409
 10
186.635365556
 20
13.795174369
 10
186.6104495778
 20
14.70677659
  0
LWPOLYLINE
  5
105
330
1F
100
AcDbEntity
  8
0
  6
Continuous
 62
     7
370
    25
100
AcDbPolyline
 90
       85
 70
   128
 43
0.0
 10
189.7853590253
 20
12.8739403789
 10
189.8103905543
 20
13.6320053534
 10
189.8853451546
 20
14.3569301329
 10
190.0098036497
 20
15.044660644
 10
190.1830700173
 20
15.6913508188
 10
190.4041752816
 20
16.2933841034
 10
190.6718829321
 20
16.8473936835
 10
190.9846958392
 20
17.3502813128
 10
191.3408646262
 20
17.7992346398
 10
191.7383974528
 20
18.1917429352
 10
192.1750711541
 20
18.5256111335
 10
192.6484436736
 20
18.7989721083
 10
193.1558677203
 20
19.0102971142
 10
193.6945055729
 20
19.1584043359
 10
194.2613449502
 20
19.2424654978
 10
194.8532158565
 20
19.2620104958
 10
195.4668083094
 20
19.2169300264
 10
196.0986908512
 20
19.1074761978
 10
196.7453297384
 20
18.9342611202
 10
197.4031087039
 20
18.6982534826
 10
198.068349181
 20
18.4007731355
 10
198.7373308752
 20
18.0434837096
 10
199.4063125693
 20
17.6283833122
 10
200.0715530464
 20
17.1577933533
 10
200.7293320119
 20
16.6343455628
 10
201.3759708991
 20
16.060967273
 10
202.0078534409
 20
15.4408650479
 10
202.6214458938
 20
14.7775067506
 10
203.2133168001
 20
14.07460215
 10
203.7801561774
 20
13.3360821735
 10
204.31879403
 20
12.5660769246
 10
204.8262180767
 20
11.7688925849
 10
205.2995905962
 20
10.9489873325
 10
205.7362642975
 20
10.1109464103
 10
206.1337971241
 20
9.2594564831
 10
206.4899659111
 20
8.3992794278
 10
206.8027788182
 20
7.5352257035
 10
207.0704864688
 20
6.6721274492
 10
207.291591733
 20
5.8148114603
 10
207.4648581006
 20
4.9680721957
 10
207.5893165958
 20
4.1366449648
 10
207.6642711961
 20
3.3251794458
 10
207.689302725
 20
2.5382136832
 10
207.6642711961
 20
1.7801487088
 10
207.5893165958
 20
1.0552239293
 10
207.4648581006
 20
0.3674934182
 10
207.291591733
 20
-0.2791967566
 10
207.0704864688
 20
-0.8812300412
 10
206.8027788182
 20
-1.4352396213
 10
206.4899659111
 20
-1.9381272507
 10
206.1337971241
 20
-2.3870805776
 10
205.7362642975
 20
-2.779588873
 10
205.2995905962
 20
-3.1134570714
 10
204.8262180767
 20
-3.3868180462
 10
204.31879403
 20
-3.598143052
 10
203.7801561774
 20
-3.7462502737
 10
203.2133168001
 20
-3.8303114356
 10
202.6214458938
 20
-3.8498564337
 10
202.0078534409
 20
-3.8047759642
 10
201.3759708991
 20
-3.6953221356
 10
200.7293320119
 20
-3.5221070581
 10
200.0715530464
 20
-3.2860994205
 10
199.4063125693
 20
-2.9886190733
 10
198.7373308752
 20
-2.6313296474
 10
198.068349181
 20
-2.2162292501
 10
197.4031087039
 20
-1.7456392912
 10
196.7453297384
 20
-1.2221915006
 10
196.0986908512
 20
-0.6488132108
 10
195.4668083094
 20
-0.0287109857
 10
194.8532158565
 20
0.6346473115
 10
194.2613449502
 20
1.3375519122
 10
193.6945055729
 20
2.0760718886
 10
193.1558677203
 20
2.8460771376
 10
192.6484436736
 20
3.6432614773
 10
192.1750711541
 20
4.4631667296
 10
191.7383974528
 20
5.3012076518
 10
191.3408646262
 20
6.1526975791
 10
190.9846958392
 20
7.0128746344
 10
190.6718829321
 20
7.8769283586
 10
190.4041752816
 20
8.740026613
 10
190.1830700173
 20
9.5973426018
 10
190.0098036497
 20
10.4440818665
 10
189.8853451546
 20
11.2755090974
 10
189.8103905543
 20
12.0869746163
 10
189.7853590253
 20
12.8739403789
  0
LWPOLYLINE
  5
106
330
1F
100
AcDbEntity
  8
0
  6
Continuous
 62
     7
370
    25
100
AcDbPolyline
 90
       40
 70
   128
 43
0.0
 10
253.8205919958
 20
55.1180799043
 10
254.1414135331
 20
54.9735953828
 10
254.9171876935
 20
54.5832650315
 10
255.6945590467
 20
54.1344981016
 10
256.4703332071
 20
53.6291386726
 10
257.2413223522
 20
53.0692633749
 10
258.0043583223
 20
52.4571728562
 10
258.756305639
 20
51.7953823276
 10
259.4940743893
 20
51.0866112285
 10
260.2146329233
 20
50.3337720513
 10
260.9150203113
 20
49.5399583737
 10
261.5923585114
 20
48.7084321463
 10
262.2438641956
 20
47.8426102888
 10
262.8668601873
 20
46.9460506489
 10
263.4587864624
 20
46.0224373824
 10
264.0172106687
 20
45.0755658145
 10
264.5398381216
 20
44.1093268434
 10
265.0245212326
 20
43.1276909524
 10
265.4692683348
 20
42.1346918939
 10
265.8722518671
 20
41.1344101141
 10
266.2318158837
 20
40.1309559852
 10
266.5464828589
 20
39.1284529157
 10
266.8149597586
 20
38.1310204056
 10
267.0361433537
 20
37.142757119
 10
267.2091247532
 20
36.1677240419
 10
267.3331931396
 20
35.2099277941
 10
267.4078386892
 20
34.2733041661
 10
267.4327546674
 20
33.3617019451
 10
267.4078386892
 20
32.4788671003
 10
267.3331931396
 20
31.6284273893
 10
267.2091247532
 20
30.8138774514
 10
267.0361433537
 20
30.038564447
 10
266.8149597586
 20
29.3056743035
 10
266.5464828589
 20
28.6182186238
 10
266.2318158837
 20
27.9790223106
 10
265.8722518671
 20
27.3907119587
 10
265.4692683348
 20
26.8557050616
 10
265.0245212325
 20
26.3762000774
 10
264.5398381216
 20
25.9541673948
 10
264.3101278997
 20
25.7841072864
  0
SPLINE
  5
107
330
1F
100
AcDbEntity
  8
0
  6
Continuous
 62
     7
370
    25
100
AcDbSpline
210
0.0
220
0.0
230
1.0
 70
     8
 71
     3
 72
    18
 73
    14
 74
     0
 42
0.00000001
 43
0.00000001
 40
0.0
 40
0.0
 40
0.0
 40
0.0
 40
0.1036418146878701
 40
0.207262068596122
 40
0.3111627868507891
 40
0.4150240732038811
 40
0.5136888451209725
 40
0.6123520406136076
 40
0.7067250110381766
 40
0.8011238913331676
 40
0.8985440563892368
 40
0.9959866094025176
 40
1.0
 40
1.0
 40
1.0
 40
1.0
 10
247.2945423847742
 20
45.47918075528336
 30
0.0
 10
246.9029661773634
 20
45.54661146634445
 30
0.0
 10
246.1198952227936
 20
45.68145886074332
 30
0.0
 10
244.9547899421467
 20
46.00802497617504
 30
0.0
 10
243.8353336351838
 20
46.40202162443443
 30
0.0
 10
242.808661150682
 20
46.84509614707659
 30
0.0
 10
241.909784992697
 20
47.31203649619507
 30
0.0
 10
241.1647911141653
 20
47.77924986204815
 30
0.0
 10
240.5816196550614
 20
48.240100114671
 30
0.0
 10
240.1476594762571
 20
48.69334734672199
 30
0.0
 10
239.9003580071467
 20
49.13942281442046
 30
0.0
 10
239.792015441122
 20
49.44114155861009
 30
0.0
 10
239.8230613924136
 20
49.59147508006491
 30
0.0
 10
239.8242895070471
 20
49.59742196814283
 30
0.0
  0
SPLINE
  5
108
330
1F
100
AcDbEntity
  8
0
  6
Continuous
 62
     7
370
    25
100
AcDbSpline
210
0.0
220
0.0
230
1.0
 70
     8
 71
     3
 72
    17
 73
    13
 74
     0
 42
0.00000001
 43
0.00000001
 40
0.0
 40
0.0
 40
0.0
 40
0.0
 40
0.1041086261161829
 40
0.2182184803031012
 40
0.3322865108872799
 40
0.4417062428080468
 40
0.5511160432715503
 40
0.6546030900996911
 40
0.7581206624945626
 40
0.8644146276975213
 40
0.9707326712571617
 40
1.0
 40
1.0
 40
1.0
 40
1.0
 10
253.8148031438746
 20
49.25325471016999
 30
0.0
 10
253.8008586553284
 20
48.99364111300073
 30
0.0
 10
253.7716300965369
 20
48.44947405640086
 30
0.0
 10
253.4775192944443
 20
47.65887360045475
 30
0.0
 10
253.0032123282147
 20
46.93008300283387
 30
0.0
 10
252.349349733313
 20
46.32565012228488
 30
0.0
 10
251.5710027468621
 20
45.86658181326025
 30
0.0
 10
250.685696590186
 20
45.55890657409766
 30
0.0
 10
249.7227869373541
 20
45.38544522365743
 30
0.0
 10
248.6857628028814
 20
45.34511694514686
 30
0.0
 10
247.8617391030149
 20
45.40164206170762
 30
0.0
 10
247.3952403576272
 20
45.46541482715006
 30
0.0
 10
247.2945423847742
 20
45.47918075528336
 30
0.0
  0
LWPOLYLINE
  5
109
330
1F
100
AcDbEntity
  8
0
  6
Continuous
 62
     7
370
    25
100
AcDbPolyline
 90
       63
 70
   128
 43
0.0
 10
241.8708445275
 20
61.5937232636
 10
241.3954824355
 20
61.8974650402
 10
240.9757893088
 20
62.2274110971
 10
240.616071767
 20
62.5801757414
 10
240.3200209988
 20
62.9521391303
 10
240.0906748858
 20
63.3394844163
 10
239.9303868293
 20
63.7382369124
 10
239.8408016017
 20
64.1443048785
 10
239.8228384688
 20
64.5535215078
 10
239.8766817565
 20
64.9616876839
 10
240.0017789599
 20
65.3646150694
 10
240.1968464123
 20
65.7581690842
 10
240.4598824578
 20
66.1383113315
 10
240.7881879906
 20
66.5011410374
 10
241.1783941517
 20
66.8429350782
 10
241.6264968977
 20
67.1601861845
 10
242.1278980881
 20
67.4496389306
 10
242.6774526683
 20
67.7083231396
 10
243.2695214646
 20
67.9335843615
 10
243.8980290498
 20
68.1231111114
 10
244.5565260858
 20
68.2749585883
 10
245.2382555018
 20
68.3875686317
 10
245.9362218314
 20
68.45978571
 10
246.6432629956
 20
68.4908687784
 10
247.3521237954
 20
68.4804988825
 10
248.0555303596
 20
68.4287824314
 10
248.7462647851
 20
68.336250106
 10
249.4172392019
 20
68.2038514131
 10
250.0615685046
 20
68.0329449425
 10
250.6726410025
 20
67.8252844258
 10
251.244186265
 20
67.5830007409
 10
251.7703394641
 20
67.3085800464
 10
252.2457015562
 20
67.0048382698
 10
252.6653946829
 20
66.6748922129
 10
253.0251122247
 20
66.3221275687
 10
253.3211629928
 20
65.9501641797
 10
253.5505091059
 20
65.5628188938
 10
253.7107971624
 20
65.1640663976
 10
253.80038239
 20
64.7579984315
 10
253.8183455229
 20
64.3487818022
 10
253.7645022352
 20
63.9406156261
 10
253.6394050318
 20
63.5376882406
 10
253.4443375793
 20
63.1441342258
 10
253.1813015338
 20
62.7639919785
 10
252.852996001
 20
62.4011622726
 10
252.46278984
 20
62.0593682318
 10
252.014687094
 20
61.7421171255
 10
251.5132859035
 20
61.4526643794
 10
250.9637313233
 20
61.1939801704
 10
250.3716625271
 20
60.9687189485
 10
249.7431549418
 20
60.7791921986
 10
249.0846579059
 20
60.6273447217
 10
248.4029284899
 20
60.5147346783
 10
247.7049621603
 20
60.4425176
 10
246.997920996
 20
60.4114345316
 10
246.2890601963
 20
60.4218044275
 10
245.585653632
 20
60.4735208786
 10
244.8949192066
 20
60.566053204
 10
244.2239447898
 20
60.6984518969
 10
243.5796154871
 20
60.8693583675
 10
242.9685429892
 20
61.0770188842
 10
242.3969977267
 20
61.3193025691
 10
241.8708445275
 20
61.5937232636
  0
LWPOLYLINE
  5
10A
330
1F
100
AcDbEntity
  8
0
  6
Continuous
 62
     7
370
    25
100
AcDbPolyline
 90
       53
 70
   128
 43
0.0
 10
243.2850580899
 20
62.4101313754
 10
242.8846745928
 20
62.6710305201
 10
242.5416856343
 20
62.9578878394
 10
242.2610927659
 20
63.2665203077
 10
242.0469876633
 20
63.5924273685
 10
241.9024924611
 20
63.9308565631
 10
241.8297142247
 20
64.2768728318
 10
241.8297142247
 20
64.6254304782
 10
241.9024924611
 20
64.9714467469
 10
242.0469876633
 20
65.3098759415
 10
242.2610927659
 20
65.6357830024
 10
242.5416856343
 20
65.9444154706
 10
242.8846745928
 20
66.2312727899
 10
243.2850580899
 20
66.4921719346
 10
243.7369976327
 20
66.7233084076
 10
244.233902925
 20
66.9213117187
 10
244.7685279686
 20
67.0832945337
 10
245.3330767266
 20
67.2068947785
 10
245.9193168068
 20
67.2903100832
 10
246.5186995087
 20
67.3323240648
 10
247.122484483
 20
67.3323240648
 10
247.7218671849
 20
67.2903100832
 10
248.3081072651
 20
67.2068947785
 10
248.8726560231
 20
67.0832945337
 10
249.4072810667
 20
66.9213117187
 10
249.904186359
 20
66.7233084076
 10
250.3561259018
 20
66.4921719346
 10
250.7565093989
 20
66.2312727899
 10
251.0994983573
 20
65.9444154706
 10
251.3800912258
 20
65.6357830024
 10
251.5941963284
 20
65.3098759415
 10
251.7386915306
 20
64.9714467469
 10
251.811469767
 20
64.6254304782
 10
251.811469767
 20
64.2768728318
 10
251.7386915306
 20
63.9308565631
 10
251.5941963284
 20
63.5924273685
 10
251.3800912258
 20
63.2665203077
 10
251.0994983573
 20
62.9578878394
 10
250.7565093989
 20
62.6710305201
 10
250.3561259018
 20
62.4101313754
 10
249.904186359
 20
62.1789949024
 10
249.4072810667
 20
61.9809915913
 10
248.8726560231
 20
61.8190087763
 10
248.3081072651
 20
61.6954085315
 10
247.7218671849
 20
61.6119932268
 10
247.122484483
 20
61.5699792452
 10
246.5186995087
 20
61.5699792452
 10
245.9193168068
 20
61.6119932268
 10
245.3330767266
 20
61.6954085315
 10
244.7685279686
 20
61.8190087763
 10
244.233902925
 20
61.9809915913
 10
243.7369976327
 20
62.1789949024
 10
243.2850580899
 20
62.4101313754
  0
LWPOLYLINE
  5
10B
330
1F
100
AcDbEntity
  8
0
  6
Continuous
 62
     1
370
    25
100
AcDbPolyline
 90
       44
 70
   128
 43
0.0
 10
214.2226122494
 20
35.314861637
 10
214.9910843107
 20
35.1288193785
 10
215.7779178003
 20
34.8776876379
 10
216.5742421324
 20
34.5636243239
 10
217.3769145787
 20
34.1878689011
 10
218.1827673578
 20
33.7519043044
 10
218.9886201369
 20
33.2574510869
 10
219.7912925832
 20
32.7064606295
 10
220.5876169153
 20
32.1011074399
 10
221.3744504049
 20
31.4437805706
 10
222.1486877797
 20
30.7370741904
 10
222.9072734784
 20
29.9837773464
 10
223.6472137098
 20
29.1868629573
 10
224.365588268
 20
28.3494760801
 10
225.0595620567
 20
27.4749214981
 10
225.7263962784
 20
26.5666506787
 10
226.3634592432
 20
25.628248152
 10
226.9682367545
 20
24.663417364
 10
227.5383420317
 20
23.675966061
 10
228.0715251299
 20
22.6697912622
 10
228.5656818189
 20
21.6488638798
 10
229.0188618881
 20
20.6172130479
 10
229.4292768426
 20
19.5789102209
 10
229.7953069623
 20
18.5380531057
 10
230.1155076934
 20
17.4987494898
 10
230.3886153499
 20
16.4651010298
 10
230.6135521008
 20
15.441187064
 10
230.7894302233
 20
14.431048513
 10
230.915555607
 20
13.4386719321
 10
230.9914304925
 20
12.4679737783
 10
231.0167554363
 20
11.5227849539
 10
230.9914304925
 20
10.6068356872
 10
230.915555607
 20
9.7237408115
 10
230.7894302233
 20
8.876985499
 10
230.6135521008
 20
8.0699115059
 10
230.3886153499
 20
7.3057039846
 10
230.1155076934
 20
6.587378913
 10
229.7953069623
 20
5.9177711921
 10
229.4292768426
 20
5.2995234575
 10
229.0188618881
 20
4.7350756508
 10
228.5656818189
 20
4.2266553893
 10
228.0715251299
 20
3.7762691758
 10
227.5383420317
 20
3.3856944787
 10
227.2570154606
 20
3.2128934059
  0
LWPOLYLINE
  5
10C
330
1F
100
AcDbEntity
  8
0
  6
Continuous
 62
     1
370
    25
100
AcDbPolyline
 90
       52
 70
   128
 43
0.0
 10
226.7861743888
 20
44.8555768186
 10
227.0749674908
 20
45.012005817
 10
227.679745002
 20
45.2785753534
 10
228.3168079668
 20
45.4814406374
 10
228.9836421885
 20
45.6198010523
 10
229.6776159772
 20
45.6931105528
 10
230.3959905354
 20
45.7010798199
 10
231.1359307669
 20
45.6436774024
 10
231.8945164656
 20
45.5211298415
 10
232.6687538403
 20
45.3339207763
 10
233.4555873299
 20
45.0827890357
 10
234.251911662
 20
44.7687257217
 10
235.0545841084
 20
44.3929702989
 10
235.8604368874
 20
43.9570057022
 10
236.6662896665
 20
43.4625524846
 10
237.4689621129
 20
42.9115620273
 10
238.265286445
 20
42.3062088377
 10
239.0521199346
 20
41.6488819684
 10
239.8263573093
 20
40.9421755881
 10
240.584943008
 20
40.1888787442
 10
241.3248832395
 20
39.3919643551
 10
242.0432577977
 20
38.5545774778
 10
242.7372315864
 20
37.6800228958
 10
243.4040658081
 20
36.7717520765
 10
244.0411287729
 20
35.8333495498
 10
244.6459062841
 20
34.8685187618
 10
245.2160115614
 20
33.8810674588
 10
245.7491946596
 20
32.87489266
 10
246.2433513486
 20
31.8539652776
 10
246.6965314177
 20
30.8223144457
 10
247.1069463723
 20
29.7840116187
 10
247.4729764919
 20
28.7431545035
 10
247.793177223
 20
27.7038508876
 10
248.0662848796
 20
26.6702024276
 10
248.2912216304
 20
25.6462884618
 10
248.467099753
 20
24.6361499107
 10
248.5932251367
 20
23.6437733299
 10
248.6691000222
 20
22.6730751761
 10
248.694424966
 20
21.7278863516
 10
248.6691000222
 20
20.8119370849
 10
248.5932251367
 20
19.9288422093
 10
248.467099753
 20
19.0820868967
 10
248.2912216304
 20
18.2750129036
 10
248.0662848796
 20
17.5108053823
 10
247.793177223
 20
16.7924803108
 10
247.4729764919
 20
16.1228725899
 10
247.1069463723
 20
15.5046248553
 10
246.6965314177
 20
14.9401770485
 10
246.2433513486
 20
14.4317567871
 10
245.7491946596
 20
13.9813705736
 10
245.2160115614
 20
13.5907958765
 10
244.9346993861
 20
13.4180031142
  0
ENDSEC
  0
SECTION
  2
OBJECTS
  0
DICTIONARY
  5
C
330
0
100
AcDbDictionary
281
     1
  3
ACAD_GROUP
350
D
  3
ACAD_LAYOUT
350
1A
  3
ACAD_MLINESTYLE
350
17
  3
ACAD_PLOTSETTINGS
350
19
  3
ACAD_PLOTSTYLENAME
350
E
  3
ACAD_SCALELIST
350
47
  3
DWGPROPS
350
10D
  0
DICTIONARY
  5
D
102
{ACAD_REACTORS
330
C
102
}
330
C
100
AcDbDictionary
281
     1
  0
DICTIONARY
  5
1A
102
{ACAD_REACTORS
330
C
102
}
330
C
100
AcDbDictionary
281
     1
  3
Layout1
350
1E
  3
Layout2
350
26
  3
Model
350
22
  0
DICTIONARY
  5
17
102
{ACAD_REACTORS
330
C
102
}
330
C
100
AcDbDictionary
281
     1
  3
Standard
350
18
  0
DICTIONARY
  5
19
102
{ACAD_REACTORS
330
C
102
}
330
C
100
AcDbDictionary
281
     1
  0
ACDBDICTIONARYWDFLT
  5
E
102
{ACAD_REACTORS
330
C
102
}
330
C
100
AcDbDictionary
281
     1
  3
Normal
350
F
100
AcDbDictionaryWithDefault
340
F
  0
DICTIONARY
  5
47
102
{ACAD_REACTORS
330
C
102
}
330
C
100
AcDbDictionary
281
     1
  3
A0
350
48
  3
A1
350
49
  3
A2
350
4A
  3
A3
350
4B
  3
A4
350
4C
  3
A5
350
4D
  3
A6
350
4E
  3
A7
350
4F
  3
A8
350
50
  3
A9
350
51
  3
B0
350
52
  3
B1
350
53
  3
B2
350
54
  3
B3
350
55
  3
B4
350
56
  3
B5
350
57
  3
B6
350
58
  3
B7
350
59
  3
B8
350
5A
  3
B9
350
5B
  3
C0
350
5C
  3
C1
350
5D
  3
C2
350
5E
  3
C3
350
5F
  3
C4
350
60
  3
C5
350
61
  3
C6
350
62
  3
C7
350
63
  3
C8
350
64
  3
C9
350
65
  3
D0
350
66
  3
D1
350
67
  3
D2
350
68
  0
XRECORD
  5
10D
102
{ACAD_REACTORS
330
C
102
}
330
C
100
AcDbXrecord
280
     1
  1
DWGPROPS COOKIE
  2

  3

  4

  6

  7

  8
b.kav
  9

300
=
301
=
302
=
303
=
304
=
305
=
306
=
307
=
308
=
309
=
 40
0.0
 41
2459954.239267002
 42
2459954.239267732
  1

 90
        0
  0
LAYOUT
  5
1E
102
{ACAD_REACTORS
330
1A
102
}
330
1A
100
AcDbPlotSettings
  1

  2
none_device
  4

  6

 40
0.0
 41
0.0
 42
0.0
 43
0.0
 44
0.0
 45
0.0
 46
0.0
 47
0.0
 48
0.0
 49
0.0
140
0.0
141
0.0
142
1.0
143
1.0
 70
   688
 72
     1
 73
     0
 74
     5
  7

 75
    16
147
1.0
148
0.0
149
0.0
100
AcDbLayout
  1
Layout1
 70
     1
 71
     1
 10
0.0
 20
0.0
 11
420.0
 21
297.0
 12
0.0
 22
0.0
 32
0.0
 14
1.0000000000E+20
 24
1.0000000000E+20
 34
1.0000000000E+20
 15
-1.0000000000E+20
 25
-1.0000000000E+20
 35
-1.0000000000E+20
146
0.0
 13
0.0
 23
0.0
 33
0.0
 16
1.0
 26
0.0
 36
0.0
 17
0.0
 27
1.0
 37
0.0
 76
     0
330
1B
  0
LAYOUT
  5
26
102
{ACAD_REACTORS
330
1A
102
}
330
1A
100
AcDbPlotSettings
  1

  2
none_device
  4

  6

 40
0.0
 41
0.0
 42
0.0
 43
0.0
 44
0.0
 45
0.0
 46
0.0
 47
0.0
 48
0.0
 49
0.0
140
0.0
141
0.0
142
1.0
143
1.0
 70
   688
 72
     1
 73
     0
 74
     5
  7

 75
    16
147
1.0
148
0.0
149
0.0
100
AcDbLayout
  1
Layout2
 70
     1
 71
     2
 10
0.0
 20
0.0
 11
0.0
 21
0.0
 12
0.0
 22
0.0
 32
0.0
 14
0.0
 24
0.0
 34
0.0
 15
0.0
 25
0.0
 35
0.0
146
0.0
 13
0.0
 23
0.0
 33
0.0
 16
1.0
 26
0.0
 36
0.0
 17
0.0
 27
1.0
 37
0.0
 76
     0
330
23
  0
LAYOUT
  5
22
102
{ACAD_REACTORS
330
1A
102
}
330
1A
100
AcDbPlotSettings
  1

  2
none_device
  4
Letter_(8.50_x_11.00_Inches)
  6

 40
6.35
 41
6.35
 42
6.35000508
 43
6.35000508
 44
215.9
 45
279.4
 46
0.0
 47
0.0
 48
0.0
 49
0.0
140
0.0
141
0.0
142
1.0
143
1.0
 70
  1712
 72
     1
 73
     0
 74
     0
  7

 75
     0
147
1.0
148
0.0
149
0.0
100
AcDbLayout
  1
Model
 70
     1
 71
     0
 10
0.0
 20
0.0
 11
279.4
 21
215.9
 12
0.0
 22
0.0
 32
0.0
 14
0.0
 24
0.0
 34
0.0
 15
279.4
 25
215.9
 35
0.0
146
0.0
 13
0.0
 23
0.0
 33
0.0
 16
1.0
 26
0.0
 36
0.0
 17
0.0
 27
1.0
 37
0.0
 76
     0
330
1F
331
29
  0
MLINESTYLE
  5
18
102
{ACAD_REACTORS
330
17
102
}
330
17
100
AcDbMlineStyle
  2
Standard
 70
     0
  3

 62
   256
 51
90.0
 52
90.0
 71
     2
 49
0.5
 62
   256
  6
BYLAYER
 49
-0.5
 62
   256
  6
BYLAYER
  0
ACDBPLACEHOLDER
  5
F
102
{ACAD_REACTORS
330
E
102
}
330
E
  0
SCALE
  5
48
102
{ACAD_REACTORS
330
47
102
}
330
47
100
AcDbScale
 70
     0
300
1:1
140
1.0
141
1.0
290
     1
  0
SCALE
  5
49
102
{ACAD_REACTORS
330
47
102
}
330
47
100
AcDbScale
 70
     0
300
1:2
140
1.0
141
2.0
290
     0
  0
SCALE
  5
4A
102
{ACAD_REACTORS
330
47
102
}
330
47
100
AcDbScale
 70
     0
300
1:4
140
1.0
141
4.0
290
     0
  0
SCALE
  5
4B
102
{ACAD_REACTORS
330
47
102
}
330
47
100
AcDbScale
 70
     0
300
1:5
140
1.0
141
5.0
290
     0
  0
SCALE
  5
4C
102
{ACAD_REACTORS
330
47
102
}
330
47
100
AcDbScale
 70
     0
300
1:8
140
1.0
141
8.0
290
     0
  0
SCALE
  5
4D
102
{ACAD_REACTORS
330
47
102
}
330
47
100
AcDbScale
 70
     0
300
1:10
140
1.0
141
10.0
290
     0
  0
SCALE
  5
4E
102
{ACAD_REACTORS
330
47
102
}
330
47
100
AcDbScale
 70
     0
300
1:16
140
1.0
141
16.0
290
     0
  0
SCALE
  5
4F
102
{ACAD_REACTORS
330
47
102
}
330
47
100
AcDbScale
 70
     0
300
1:20
140
1.0
141
20.0
290
     0
  0
SCALE
  5
50
102
{ACAD_REACTORS
330
47
102
}
330
47
100
AcDbScale
 70
     0
300
1:30
140
1.0
141
30.0
290
     0
  0
SCALE
  5
51
102
{ACAD_REACTORS
330
47
102
}
330
47
100
AcDbScale
 70
     0
300
1:40
140
1.0
141
40.0
290
     0
  0
SCALE
  5
52
102
{ACAD_REACTORS
330
47
102
}
330
47
100
AcDbScale
 70
     0
300
1:50
140
1.0
141
50.0
290
     0
  0
SCALE
  5
53
102
{ACAD_REACTORS
330
47
102
}
330
47
100
AcDbScale
 70
     0
300
1:100
140
1.0
141
100.0
290
     0
  0
SCALE
  5
54
102
{ACAD_REACTORS
330
47
102
}
330
47
100
AcDbScale
 70
     0
300
2:1
140
2.0
141
1.0
290
     0
  0
SCALE
  5
55
102
{ACAD_REACTORS
330
47
102
}
330
47
100
AcDbScale
 70
     0
300
4:1
140
4.0
141
1.0
290
     0
  0
SCALE
  5
56
102
{ACAD_REACTORS
330
47
102
}
330
47
100
AcDbScale
 70
     0
300
8:1
140
8.0
141
1.0
290
     0
  0
SCALE
  5
57
102
{ACAD_REACTORS
330
47
102
}
330
47
100
AcDbScale
 70
     0
300
10:1
140
10.0
141
1.0
290
     0
  0
SCALE
  5
58
102
{ACAD_REACTORS
330
47
102
}
330
47
100
AcDbScale
 70
     0
300
100:1
140
100.0
141
1.0
290
     0
  0
SCALE
  5
59
102
{ACAD_REACTORS
330
47
102
}
330
47
100
AcDbScale
 70
     0
300
1/128" = 1'-0"
140
0.0078125
141
12.0
290
     0
  0
SCALE
  5
5A
102
{ACAD_REACTORS
330
47
102
}
330
47
100
AcDbScale
 70
     0
300
1/64" = 1'-0"
140
0.015625
141
12.0
290
     0
  0
SCALE
  5
5B
102
{ACAD_REACTORS
330
47
102
}
330
47
100
AcDbScale
 70
     0
300
1/32" = 1'-0"
140
0.03125
141
12.0
290
     0
  0
SCALE
  5
5C
102
{ACAD_REACTORS
330
47
102
}
330
47
100
AcDbScale
 70
     0
300
1/16" = 1'-0"
140
0.0625
141
12.0
290
     0
  0
SCALE
  5
5D
102
{ACAD_REACTORS
330
47
102
}
330
47
100
AcDbScale
 70
     0
300
3/32" = 1'-0"
140
0.09375
141
12.0
290
     0
  0
SCALE
  5
5E
102
{ACAD_REACTORS
330
47
102
}
330
47
100
AcDbScale
 70
     0
300
1/8" = 1'-0"
140
0.125
141
12.0
290
     0
  0
SCALE
  5
5F
102
{ACAD_REACTORS
330
47
102
}
330
47
100
AcDbScale
 70
     0
300
3/16" = 1'-0"
140
0.1875
141
12.0
290
     0
  0
SCALE
  5
60
102
{ACAD_REACTORS
330
47
102
}
330
47
100
AcDbScale
 70
     0
300
1/4" = 1'-0"
140
0.25
141
12.0
290
     0
  0
SCALE
  5
61
102
{ACAD_REACTORS
330
47
102
}
330
47
100
AcDbScale
 70
     0
300
3/8" = 1'-0"
140
0.375
141
12.0
290
     0
  0
SCALE
  5
62
102
{ACAD_REACTORS
330
47
102
}
330
47
100
AcDbScale
 70
     0
300
1/2" = 1'-0"
140
0.5
141
12.0
290
     0
  0
SCALE
  5
63
102
{ACAD_REACTORS
330
47
102
}
330
47
100
AcDbScale
 70
     0
300
3/4" = 1'-0"
140
0.75
141
12.0
290
     0
  0
SCALE
  5
64
102
{ACAD_REACTORS
330
47
102
}
330
47
100
AcDbScale
 70
     0
300
1" = 1'-0"
140
1.0
141
12.0
290
     0
  0
SCALE
  5
65
102
{ACAD_REACTORS
330
47
102
}
330
47
100
AcDbScale
 70
     0
300
1-1/2" = 1'-0"
140
1.5
141
12.0
290
     0
  0
SCALE
  5
66
102
{ACAD_REACTORS
330
47
102
}
330
47
100
AcDbScale
 70
     0
300
3" = 1'-0"
140
3.0
141
12.0
290
     0
  0
SCALE
  5
67
102
{ACAD_REACTORS
330
47
102
}
330
47
100
AcDbScale
 70
     0
300
6" = 1'-0"
140
6.0
141
12.0
290
     0
  0
SCALE
  5
68
102
{ACAD_REACTORS
330
47
102
}
330
47
100
AcDbScale
 70
     0
300
1'-0" = 1'-0"
140
12.0
141
12.0
290
     0
  0
ENDSEC
  0
EOF
